Oops, an error
Loading. Please wait.

96 Tears bass

4,044 views 3 this week
no commentswrite comment
1 2 3 4 5
x 3
add to favorites
×
Save as Personal and add changes to this tab that will be seen only by you. Learn more ›
×
You can save this tab as Personal to edit and correct it or add notes. All changes will be seen only by you. Learn more »
launch autoscroll
font size
0
reset
guitar tuner
edit
Autoscroll
slow
fast
+/-
esc
set tempo
stop
Author
THE STRANGLERS - 96 TEARS
   (Tabbed by w7w7w7)


Beware! This Stranglers song (well, cover of ? And The Mysterians) seems detuned. It's 
fact a bit lower, but not to a full tone. Weird. So for instance, the first "5" on the 
riff is actually somewhere between a "4" and a "5". Get it?


Main riff
G|-----------------------------------------|
D|-5-5-----5-5-----------5-8-8-7-----------|
A|-----7-5-----7-5-----7---------7---------| x20
E|-----------------8-8---------------------|

Bridge
G|-----------------------------------------|
D|-----------------------------------------|
A|-----------------2-0---------------------| x2
E|-0---3-5-3-2-0-------3-2-----------------|

G|-----------------------------------------|
D|-----------------------------------------|
A|-----------------2-0-0---3-3-3-3-3-------|
E|-0---3-5-3-2-0---------3-----------0-1---|

Main riff/Main riff with variations  --> END


Main riff with variations
G|-------------------------5-5-------------|
D|-5-5-----5-5-----------5-----8-----------|
A|-----7-5-----7-5-----7---------7---------|
E|-----------------8-8---------------------|

            
            
Suggest correction
Creating personal tab
Creating personal tab
You can edit any tab online and save it as your Personal.

You can edit, replace or remove any tab part or add personal notes – all changes will be seen only by you.

Personal tabs can be accessed anytime from any device, even offline.
Learn more »
Give kudos to tab author, rate the tab!
1 2 3 4 5
comments
print report bad tab
guest
You may want to rate the tab now too:
select rating
Wanna post a correction for this tab? Suggest correction