Oops, an error
Loading. Please wait.

Golden Brown solo tab

version 1
version 1

Solo

Whole song

Interactive

24,494 views 27 this week
4 commentsread comments
1 2 3 4 5
x 13
add to favorites
×
Save as Personal and add changes to this tab that will be seen only by you. Learn more ›
×
You can save this tab as Personal to edit and correct it or add notes. All changes will be seen only by you. Learn more »
launch autoscroll
font size
0
reset
how to read this tab
guitar tuner
backing track
0:00
0:00
edit
Autoscroll
slow
fast
+/-
esc
set tempo
stop
ALl the solos sucked so this is my one - Standard tuning

-------------------------------------------------------------------------------|
-------------------------------------------------------------------------------|
--11h12p11h12p11h12p11h12p11h12p11h12p11h12p11h12/14---------------------------|
-------------------------------------------------------------------------------|
-------------------------------------------------------------------------------|
-------------------------------------------------------------------------------|

-------------------------------------------------------------------------------|
-------------------------------------------------------------------------------|
--11h12p11h12p11h12p11h12--12--11--9--7----------------------------------------|
-----------------------------------------9---9---7-----------------------------|
-------------------------------------------------------------------------------|
-------------------------------------------------------------------------------|

----12---10---------------------------12-----10--------------------------------|
--------------12---10----------------------------12---10-----------------------|
-------------------------12\11----------------------------12\11----------------|
-------------------------------------------------------------------------------|
-------------------------------------------------------------------------------|
-------------------------------------------------------------------------------|

--------------------------------------------------------------------------12-10-|
----------------------------12---10--------------------------------10--12-------|
-----------------11---12--------------12--11---------------11--12---------------|
--------11---12---------------------------------12--11--12----------------------|
---12---------------------------------------------------------------------------|
--------------------------------------------------------------------------------|

            
            
Suggest correction
Creating personal tab
Creating personal tab
You can edit any tab online and save it as your Personal.

You can edit, replace or remove any tab part or add personal notes – all changes will be seen only by you.

Personal tabs can be accessed anytime from any device, even offline.
Learn more »
comments
print report bad tab
4 comments total. Showing first comments. show 1 bad comment
0 reply
bassetrox 344 Apr 12, 2007 05:00 AM

good

0 reply
MASTER JiMMY 570 Sep 24, 2007 02:43 AM

how is he full of himself? 5 Star buddy, thats perfect. And hes not half a step out of tune, U cant play the song with that tuning but the solos fine coz u dont play any open notes. Peace

guest
Wanna post a correction for this tab? Suggest correction