Oops, an error
Loading. Please wait.

Princess Of The Streets bass

version 2
version 2

Whole song

Interactive

1,524 views 1 this week
no commentswrite comment
1 2 3 4 5
x 5
add to favorites
×
Save as Personal and add changes to this tab that will be seen only by you. Learn more ›
×
You can save this tab as Personal to edit and correct it or add notes. All changes will be seen only by you. Learn more »
launch autoscroll
font size
0
reset
guitar tuner
edit
Autoscroll
slow
fast
+/-
esc
set tempo
stop
Author
Difficulty
-------------------------------------------------------------------------------
			     PRINCESS OF THE STREETS - The Stranglers
-------------------------------------------------------------------------------

Tabbed By : Arwyn (xArwyn)

Tuning: Standard


G|-12-12-12-12-12-12-12-10----------------6-5-3---------------|
D|--------------------------12-11-10-8-555-------5-3----------|
A|----------------------------------------------------5-4-3---|
E|----------------------------------------------------------6-|

G|--------------------------------------------------03-------------------------|
D|-----------------------------------------------03--------53------------------|
A|-------------------------------------------------------------543100----------|
E|-3-33-33-33-21-11-11-11-23-33-33-33-21-11-11--------33--------------31-11-11-|

G|----03--------------------------|
D|-03-------53--------------------|
A|-------------543100-------------|
E|-------33-----------31-11-11-11-|

"She's gone and left me..."
G|---------------------------------------------------------------------------|
D|---------------------------------------------------------------------------|
A|---------------------------------------------------------------------------|
E|-13-33-33-33-21-11-11-11-13-33-33-33-21-11-11-11-13-33-33-33-21-11-11-11-1-|

"Yeah she's the queen of the street..."
G|---------------------------|
D|--------------------3-33-3-|
A|-3-33-35-55-56-66-6--------|
E|---------------------------|

"She's real good looking..."
G|--------------------------------------------------------------------------|
D|--------------------------------------------------------------------------|
A|--------------------------------------------------------------------------|
E|-3-33-33-33-21-11-11-11-13-33-33-33-21-11-11-11-13-33-33-33-21-11-11-11-1-|

"Yeah she's the queen of the street..."
G|--------------------------|
D|--------------------3-333-|
A|-3-33-35-55-56-66-6-------|
E|--------------------------|

"She's no lady..."
G|----------------------------------------------------------|
D|----------------------------------------------------------|
A|-333333-111111-000000--------0-111111-000000-----------01-|
E|------------------------11113-------------------3-33-13---|

"She's no lady..."
G|------------------------------------------------------|
D|------------------------------------------------------|
A|-333333-111111-000000---------5555555555555-53-31-100-|
E|------------------------111111------------------------|

G|-----------------------------------------------------|
D|-5-55-53-33-3-------------5-55-53-33-3---------------|
A|--------------3-33-31-11-1-------------3-33-31-11-1--|
E|-----------------------------------------------------|

G|--------------------------------------------------|
D|-5-55-53-33-3-------------------------------------|
A|---------------3-33-31-11-1-----------------------|
E|-----------------------------3-13-13-13-13-13-13\-|

"With words of fire..."
G|--------------------------------------------------------------------------|
D|--------------------------------------------------------------------------|
A|--------------------------------------------------------------------------|
E|-3-33-33-33-21-11-11-11-13-33-33-33-21-11-11-11-13-33-33-33-21-11-11-11-1-|

"But would you rather wait a year..."
G|---------------------==----|
D|---------------------3-333-|
A|-3-33-35-55-56-66-6--------|
E|---------------------------|

G|----------------------------03-----------------------|
D|----53-------------------03-------53-----------------|
A|-------543100------------------------543100----------|
E|-33------------31-11-11--------33-----------31-11-11-|

G|----03---------65-------------------03------------------------|
D|-03--------578----8530----------03--------53------------------|
A|----------------------------------------------543100----------|
E|-------33--------------1-11-11---------33------------31-11-11-|

"She's gone and left me..."
G|------------------------------------------------------------------------------|
D|------------------------------------------------------------------------------|
A|------------------------------------------------------------------------------|
E|-11-13-33-33-33-21-11-11-11-13-33-33-33-21-11-11-11-13-33-33-33-21-11-11-11-1-|

"But she's the queen of the streets..."
G|---------------------------|
D|---------------------3-333-|
A|-3-33-35-55-56-66-6--------|
E|---------------------------|

"She's no lady..."
G|---------------------------------------------------------|
D|---------------------------------------------------------|
A|-333333-111111-000000-------0-111111-000000-----------01-|
E|----------------------11113------------------3-33-13-----|

"She's no lady..."
G|------------------------------------------------------|
D|------------------------------------------------------|
A|-333333-111111-000000---------5555555555555-53-31-100-|
E|-----------------------111111-------------------------|

G|-------------------------------------------------------|
D|-5-55-53-33-3-------------5-55-53-33-3-----------------|
A|--------------3-33-31-11-1-------------3-33-31-11-11-1-|
E|-------------------------------------------------------|

G|-----------------------------------------------|
D|5-55-53-33-3-----------------------------------|
A|-------------3-33-31-11-1----------------------|
E|--------------------------3-13-13-13-13-13-13\-|

            
            
Suggest correction
Creating personal tab
Creating personal tab
You can edit any tab online and save it as your Personal.

You can edit, replace or remove any tab part or add personal notes – all changes will be seen only by you.

Personal tabs can be accessed anytime from any device, even offline.
Learn more »
comments
print report bad tab
guest
You may want to rate the tab now too:
select rating
Wanna post a correction for this tab? Suggest correction