Oops, an error
Loading. Please wait.
We have an official Between Love And Hate tab made by UG professional guitarists. Check out the tab »
×
21,970 views 3 this week
2 commentsread comments
1 2 3 4 5
x 9
add to favorites
×
Save as Personal and add changes to this tab that will be seen only by you. Learn more ›
×
You can save this tab as Personal to edit and correct it or add notes. All changes will be seen only by you. Learn more »
launch autoscroll
font size
0
reset
how to read this tab
guitar tuner
edit
Autoscroll
slow
fast
+/-
esc
set tempo
stop
Between Love & Hate

Artist: The Strokes
Title: Between Love & Hate 
Album: Room On Fire 
Tabbed By: Uriel  M.M   (mexico city)
[][][][][][][][][][][][][][][][][][][][][][][][][][][][][][][][][][[][]

Guitar 1
Verse A 
	         x4                x2               x2
E||-----------------|-----------------|----------------|
B||----------10-----|----------10-----|---------10-----|
G||-------9------9--|-------9------9--|------9------9--|
D||----7------------|---11------------|---9------------|
A||-----------------|-----------------|----------------|
E||-----------------|-----------------|----------------|\
	         x4                x2               x2    (x2)
E||-----------------|-----------------|----------------|/
B||----------7------|----------9------|---------9------|
G||-------7-----7---|-------9-----9---|------9-----9---|
D||----9------------|---11------------|---9------------|
A||-----------------|-----------------|----------------|
E||-----------------|-----------------|----------------|

Verse B	                                                           x4
E||-------------------------------------------------------------------|
B||----14-14---14-14---14-14---14-14---15-15---15-15---15-15---15-15--|
G||----14-14---14-14---14-14---14-14---14-14---14-14---14-14---14-14--|
D||----14-14---14-14---14-14---14-14---16-16---16-16---16-16---16-16--|
A||-------------------------------------------------------------------|
E||-------------------------------------------------------------------|

Chorus		                                            x2
E||------------------------------------------------------------|
B||----10-----10-----10-----10-----12-----12-----12-----12-----|
G||--------9------9------9------9------9------9------9------9--| 
D||------------------------------------------------------------|  	
A||------------------------------------------------------------|      
E||------------------------------------------------------------|
                                                                   x2 
E||-------------------------------------------------------------------|
B||----12------12------12-----12------12------12------12------12------|
G||--------11------11------11-----11------13------13------13------13--|
D||-------------------------------------------------------------------|
A||-------------------------------------------------------------------|
E||-------------------------------------------------------------------|

Solo.  
E||--------------------5---------------|
B||--------5-----5-------5-7-5-----5---|
G||----5*6---5*6---5*6---------5*6-----|
D||------------------------------------|
A||------------------------------------|

E||---------------------------------------------------------|
E||----9-9-9/-14-14-14/-8-8-8/-13-13-13/-12-----------------|
B||----8-8-8/-13-13-13/-7-7-7/-12-12-12/-10----14--12--10---|
G||----9------14--------8------13--------------14--12--11---|
D||---------------------------------------------------------|
A||---------------------------------------------------------|
E||---------------------------------------------------------|

E||---------------------------------------------------|
B||----------10-------10-------10-10-12-10-------10---|
G||----10*11----10*11----10*11-------------10*11------| 
D||---------------------------------------------------|  	
A||---------------------------------------------------|      
E||---------------------------------------------------|

E||------------------------------------------------|
B||----14/16-14-9/11-7-7-7-9--7—-9--7/12-10-10-9---|
G||----14/16-14-9/11-7-7-7-7--7--7--7/11-11-9--9---|
D||------------------------------------------------|
A||------------------------------------------------|
E||------------------------------------------------|

Verse A.	 x4	           x2               x2            	
E||-----------------|-----------------|----------------|
B||----------10-----|----------10-----|---------10-----|
G||-------9------9--|-------9------9--|------9------9--|
D||----7------------|---11------------|---9------------|
A||-----------------|-----------------|----------------|
E||-----------------|-----------------|----------------|\
	         x4                x2               x2    (x2)      
E||-----------------|-----------------|----------------|/
B||----------7------|----------9------|---------9------|
G||-------7-----7---|-------9-----9---|------9-----9---|
D||----9------------|---11------------|---9------------|
A||-----------------|-----------------|----------------|
E||-----------------|-----------------|----------------|

Verse B.	                                                   x4
E||-------------------------------------------------------------------|
B||----14-14---14-14---14-14---14-14---15-15---15-15---15-15---15-15--|
G||----14-14---14-14---14-14---14-14---14-14---14-14---14-14---14-14--|
D||----14-14---14-14---14-14---14-14---16-16---16-16---16-16---16-16--|
A||-------------------------------------------------------------------|
E||-------------------------------------------------------------------|

Chorus.	                                                 x2
E||---------------------------------------------------------|
B||----10-----10-----10-----10-----12-----12-----12-----12--|
G||--------9------9------9------9------9------9------9------|
D||---------------------------------------------------------|
A||---------------------------------------------------------|
E||---------------------------------------------------------|
                	                                         x2
E||---------------------------------------------------------------|-------------------------------|
B||12------12------12------12------12------12------12------12-----|-12------12------12------12----|2da Ves.
G||----11------11------11------11------13------13------13------13-|-----13------13------13------13|
D||---------------------------------------------------------------|-------------------------------|
A||---------------------------------------------------------------|-------------------------------|
E||---------------------------------------------------------------|-------------------------------|

In ends up. Guitar 1
E||----12----|
B||----13----|
G||----12----|
D||----14----|
A||----------|
E||----------|


Guitar 2
Verse A                                                  (palm-muted) 
E||---------------------------------------------------------------|
B||---------------------------------------------------------------|
G||---------------------------------------------------------------|
D||---------------------------------------------------------------|
A||--------------------------------------------4-4-4-4-4-4-4-4-4--|
E||----5-5-5-5-5-5-5-5-5---5-5-5-5-5-5-5-5-5----------------------|

E||---------------------------------------------------------------|
B||---------------------------------------------------------------|
G||---------------------------------------------------------------|
D||---------------------------------------------------------------|
A||----2-2-2-2-2-2-2-2-2---5-5-5-5-5-5-5-5-5---5-5-5-5-5-5-5-5-5--|
E||---------------------------------------------------------------|

E||---------------------------------------------------------------|
B||---------------------------------------------------------------|
G||---------------------------------------------------------------|
D||---------------------------------------------------------------|
A||----4-4-4-4-4-4-4-4-4---2-2-2-2-2-2-2-2-2----------------------|
E||---------------------------------------------------------------|

Verse B.                                       
E||---------------------------------------|
B||----2-2-2-2-2-2-2-2-2-2-2-2-2-2-2-2-/--|
G||----2-2-2-2-2-2-2-2-2-2-2-2-2-2-2-2-/--|
D||----2-2-2-2-2-2-2-2-2-2-2-2-2-2-2-2-/--|
A||---------------------------------------|
E||---------------------------------------|\
                                             (x4)
E||---------------------------------------|/
B||----7-7-7-7-7-7-7-7-7-7-7-7-7-7-7-7-/--|
G||----7-7-7-7-7-7-7-7-7-7-7-7-7-7-7-7-/--|
D||----7-7-7-7-7-7-7-7-7-7-7-7-7-7-7-7-/--|
A||---------------------------------------|
E||---------------------------------------|

Chorus.
E||---------------------------------------------------------------------|
B||---------------------------------------------------------------------|
G||--2-2-2-------2-2-1-1-1-1-1-1-1-1/7-7-7------------------------------|
D||--------4-4-4---------------------------7-7-7-4-4-2-2-2-2-2-2-2-2----|
A||---------------------------------------------------------------------|
E||---------------------------------------------------------------------|

E||---------------------------------------------------------------------|
B||---------------------------------------------------------------------|
G||--2-2-2-------2-2-1-1-1-1-1-1-1-1/7-7-7------------------------------|
D||--------4-4-4---------------------------7-7-7-4-4-6-6-6-4-4-4-2------|
A||---------------------------------------------------------------------|
E||---------------------------------------------------------------------|
                                                   
Solo. 
( Light sound )                   x40                    x32  
E||----12-12-12-12-12-12-12-12-12-12/-|-5-5-5-5-5-5-5-5-5-5--|
B||----12-12-12-12-12-12-12-12-12-12/-|-7-7-7-7-7-7-7-7-7-7--|
G||----14-14-14-14-14-14-14-14-14-14/-|-7-7-7-7-7-7-7-7-7-7--|
D||----14-14-14-14-14-14-14-14-14-14/-|-7-7-7-7-7-7-7-7-7-7--|
A||----12-12-12-12-12-12-12-12-12-12/-|-5-5-5-5-5-5-5-5-5-5--|
E||-----------------------------------|----------------------|

Verse A                                              (palm-muted)
E||---------------------------------------------------------------|
B||---------------------------------------------------------------|
G||---------------------------------------------------------------|
D||---------------------------------------------------------------|
A||--------------------------------------------4-4-4-4-4-4-4-4-4--|
E||----5-5-5-5-5-5-5-5-5---5-5-5-5-5-5-5-5-5----------------------|

E||---------------------------------------------------------------|
B||---------------------------------------------------------------|
G||---------------------------------------------------------------|
D||---------------------------------------------------------------|
A||----2-2-2-2-2-2-2-2-2---5-5-5-5-5-5-5-5-5---5-5-5-5-5-5-5-5-5--|
E||---------------------------------------------------------------|

E||---------------------------------------------------------------|
B||---------------------------------------------------------------|
G||---------------------------------------------------------------|
D||---------------------------------------------------------------|
A||----4-4-4-4-4-4-4-4-4---2-2-2-2-2-2-2-2-2----------------------|
E||---------------------------------------------------------------|

Verse B.                                       
E||---------------------------------------|
B||----2-2-2-2-2-2-2-2-2-2-2-2-2-2-2-2-/--|
G||----2-2-2-2-2-2-2-2-2-2-2-2-2-2-2-2-/--|
D||----2-2-2-2-2-2-2-2-2-2-2-2-2-2-2-2-/--|
A||---------------------------------------|
E||---------------------------------------|\
                                             (x4)
E||---------------------------------------|/
B||----7-7-7-7-7-7-7-7-7-7-7-7-7-7-7-7-/--|
G||----7-7-7-7-7-7-7-7-7-7-7-7-7-7-7-7-/--|
D||----7-7-7-7-7-7-7-7-7-7-7-7-7-7-7-7-/--|
A||---------------------------------------|
E||---------------------------------------|

Chorus.
E||---------------------------------------------------------------------|
B||---------------------------------------------------------------------|
G||--2-2-2-------2-2-1-1-1-1-1-1-1-1/7-7-7------------------------------|
D||--------4-4-4---------------------------7-7-7-4-4-6-6-6-4-4-4-2-2----|
A||---------------------------------------------------------------------|
E||---------------------------------------------------------------------|

E||-----------------------------------------------------------------------------------|
B||-----------------------------------------------------------------------------------|
G||--2-2-2-------2-2-1-1-1-1-1-1-1-1/7-7-7--------------------------------------------|
D||--------4-4-4---------------------------7-7-7-4-4-2-2-2-2-2-2-2-2-2-2-2-2-2-2-2-2--|
A||-----------------------------------------------------------------------------------|
E||-----------------------------------------------------------------------------------|

It ends up. Guitar 2.
E||----3-----|
B||----5-----|
G||----5-----|
D||----5-----|
A||----3-----|
E||----------|

That is everything.
Any comment or suggestion please write to
Multimera@hotmail.com

            
            
Suggest correction
Creating personal tab
Creating personal tab
You can edit any tab online and save it as your Personal.

You can edit, replace or remove any tab part or add personal notes – all changes will be seen only by you.

Personal tabs can be accessed anytime from any device, even offline.
Learn more »
comments
print report bad tab
2 comments total.
0 reply
nugiboy 202 Nov 21, 2007 10:52 AM

What does the * mean in the solo?
I presume its either a slide or a bend.

0 reply
qotsa1998 50 Jan 28, 2008 11:55 AM

Its a bend. Vrey nice tab, pretty much perfect. The only somewhat difficult part for me is finding the right sound to
play it. 5/5

guest
Wanna post a correction for this tab? Suggest correction