Oops, an error
Loading. Please wait.
We have an official Last Night tab made by UG professional guitarists. Check out the tab »
×

Last Night tab

252,238 views 447 this week
10 commentsread comments
1 2 3 4 5
x 30
add to favorites
×
Save as Personal and add changes to this tab that will be seen only by you. Learn more ›
×
You can save this tab as Personal to edit and correct it or add notes. All changes will be seen only by you. Learn more »
launch autoscroll
font size
0
reset
how to read this tab
guitar tuner
backing track
0:00
0:00
edit
Autoscroll
slow
fast
+/-
esc
set tempo
stop
Author
----------------------------------------------------------------------------
                             LAST NITE - The Strokes
----------------------------------------------------------------------------

"Last Nite"
The Strokes
Tabbed By Stoneman
4/4/09

ok so this is my 2nd strokes tab.
tho it's more like a correction tab.
i've noticed other versions of this song
with the 2nd guitar sounding off.
so i've figured out the proper notes in the chords
High up on The 2nd guitar and also the intro/bridge riff.

enjoy  

  
/////////////////////////////////////////////////////

Chords Used:

Guitar 1: 
 
  C   F   G   Em 
e|-------------7------|
B|-8---10--12--8--10--|
G|-9---10--12--9--10--| 
D|-10--10--12--9--10--|
A|-10--8---10------8--|
E|--------------------|


Guitar 2: 

   C   F    G   Em
e|-8---10---7---7----|
B|-8---10---8---8----|
G|-9---10---7---9----|
D|-10----------------|
A|-------------------|
E|-------------------|


//////////////////////////////////////////////////////

[Intro]

 Guitar 1
e|----------------------------|
B|----------------------------|
G|----------------------------|
D|-10-10-10-10-10-10-10-10----|
A|-x--x--x--x--x--x--x--x-----|
E|-8--8--8--8--8--8--8--8-----| x3


 (0:10)
 Guitar 2
e|--------------------------------------|
B|--------------------------------------|
G|-5-5-5-5-5-5-5-5--5-5-5-5-5-5-5-5-----|
D|-x-x-x-x-x-x-x-x--x-x-x-x-x-x-x-x-----|
A|-3-3-3-3-3-3-3-3----------------------|
E|------------------3-3-3-3-3-3-3-3-----| x4



[Verse]

Guitars 1 & 2

C                                 F
Last nite, she said, "Oh, baby, I feel so down.
       G                    Em
Oh, it turns me off, when I feel left out."
C                                     F
So I, turned around, "Oh, baby, I don't care no more.
       G                        F
I know this for sure, I'm walkin' out that door."
C
Well, I've been in town for just about fifteen oh minutes now,
             D                  G
And oh Baby, I feel so down, and I don't know why
       Em
I keep walkin' for miles.


[Chorus]

  See people they don't understand
e|-------------------------------------------------|
B|-------------------------------------------------|
G|-------------------------------------------------|
D|-10-10-10-10-10-10-10-10-10-10-10-10-10-10-10-10-|
A|-x--x--x--x--x--x--x--x--x--x--x--x--x--x--x--x--|
E|-8--8--8--8--8--8--8--8--8--8--8--8--8--8--8--8--|
|
|
e|-------------------------------------------------|
B|-------------------------------------------------|
G|-------------------------------------------------|
D|-5--5--5--5--5--5--5--5--5--5--5--5--5--5--5--5--|
A|-3--3--3--3--3--3--3--3--5--5--5--5--5--5--5--5--|
E|-------------------------------------------------|

  No girlfriends they can't understand
e|-------------------------------------------------|
B|-------------------------------------------------|
G|-------------------------------------------------|
D|-10-10-10-10-10-10-10-10-10-10-10-10-10-10-10-10-|
A|-x--x--x--x--x--x--x--x--x--x--x--x--x--x--x--x--|
E|-8--8--8--8--8--8--8--8--8--8--8--8--8--8--8--8--|
|
|
e|-------------------------------------------------|
B|-------------------------------------------------|
G|-------------------------------------------------|
D|-5--5--5--5--5--5--5--5--5--5--5--5--5--5--5--5--|
A|-3--3--3--3--3--3--3--3--5--5--5--5--5--5--5--5--|
E|-------------------------------------------------|

  Your Grandsons they won't understand
e|-------------------------------------------------|
B|-------------------------------------------------|
G|-------------------------------------------------|
D|-10-10-10-10-10-10-10-10-10-10-10-10-10-10-10-10-|
A|-x--x--x--x--x--x--x--x--x--x--x--x--x--x--x--x--|
E|-8--8--8--8--8--8--8--8--8--8--8--8--8--8--8--8--|



e|-------------------------------------------------|
B|-------------------------------------------------|
G|-5--5--5--5--5--5--5--5--5--5--5--5--5--5--5--5--|
D|-x--x--x--x--x--x--x--x--5--5--5--5--5--5--5--5--|
A|-3--3--3--3--3--3--3--3--------------------------|
E|-------------------------------------------------|

   On top of this I ain't ever gonna understand...
e|-------------------------------------------------|
B|-------------------------------------------------|
G|-------------------------------------------------|
D|-10-10-10-10-10-10-10-10-10-10-10-10-10-10-10-10-|
A|-x--x--x--x--x--x--x--x--x--x--x--x--x--x--x--x--|
E|-8--8--8--8--8--8--8--8--8--8--8--8--8--8--8--8--|



e|-------------------------------------------------|
B|-------------------------------------------------|
G|-5--5--5--5--5--5--5--5--5--5--5--5--5--5--5--5--|
D|-x--x--x--x--x--x--x--x--5--5--5--5--5--5--5--5--|
A|-3--3--3--3--3--3--3--3--------------------------|
E|-------------------------------------------------|


[Verse]

C                                    F
Last nite, she said, "Oh, baby don't feel so down.
       G                    Em
Oh, it turns me off, when I feel left out."
C                                     F
So I, turned 'round, "Oh, baby, gonna be all right.
          G                      Em
It was a great big lie, 'cause I left last night"


[Bridge]

e|-------------------------------------------------|
B|-------------------------------------------------|
G|-------------------------------------------------|
D|-10-10-10-10-10-10-10-10-10-10-10-10-10-10-10-10-|
A|-x--x--x--x--x--x--x--x--x--x--x--x--x--x--x--x--|
E|-8--8--8--8--8--8--8--8--8--8--8--8--8--8--8--8--|
|
|
e|-------------------------------------------------|
B|-------------------------------------------------|
G|-5--5--5--5--5--5--5--5--5--5--5--5--5--5--5--5--|
D|-x--x--x--x--x--x--x--x--5--5--5--5--5--5--5--5--|
A|-3--3--3--3--3--3--3--3--------------------------|
E|-------------------------------------------------|


e|-------------------------------------------------|
B|-------------------------------------------------|
G|-------------------------------------------------|
D|-10-10-10-10-10-10-10-10-10-10-10-10-10-10-10-10-|
A|-x--x--x--x--x--x--x--x--x--x--x--x--x--x--x--x--|
E|-8--8--8--8--8--8--8--8--8--8--8--8--8--8--8--8--|
|
|
e|-------------------------------------------------|
B|-------------------------------------------------|
G|-17-17-17-17-17-17-17-17-17-17-17-17-17-17-17-17-|
D|-x--x--x--x--x--x--x--x--x--x--x--x--x--x--x--x--|
A|-15-15-15-15-15-15-15-15-15-15-15-15-15-15-15-15-|
E|-------------------------------------------------| 




[Solo]


Guitar 1 Chords : C - F- G


Guitar 2
 
  C
e|-------------------------------------------------------|
B|-18b20--(20)r18p16----16-18b20--(20)r18p16---16--------|
G|-------------------17---------------------17-17--------|
D|--------------------------------------------------/15--|
A|-------------------------------------------------------|
E|-------------------------------------------------------|

  F
e|-------------------------------------------|
B|-16----15----------13-13-------13-13-------|
G|----14----12-15b17-------15b17-------------|
D|--------------------------------------/15--|
A|-------------------------------------------|
E|-------------------------------------------|


e|-----------------------------------------|
B|-16----15----------13-13-------13-13-----|
G|----14----12-15b17-------15b17-----------|
D|-------------------------------------15--|
A|-----------------------------------------|
E|-----------------------------------------|

  G
e|-------------------------8--8--8--8--8--8--8--10b12-(12)-(12)\-|
B|-------------------------8--8--8--8--8--8--8--------------12\\-|
G|-8----8----8----8---8----10b12-12-12-12-12-12------------------|
D|---10---10---10---10--10---------------------------------------|
A|---------------------------------------------------------------|
E|---------------------------------------------------------------|


[CHORUS 2] (2:16)

 Oh, people they don't understand
e|-------------------------------------------------|
B|-------------------------------------------------|
G|-------------------------------------------------|
D|-10-10-10-10-10-10-10-10-10-10-10-10-10-10-10-10-|
A|-x--x--x--x--x--x--x--x--x--x--x--x--x--x--x--x--|
E|-8--8--8--8--8--8--8--8--8--8--8--8--8--8--8--8--|
|
|
e|-------------------------------------------------|
B|-------------------------------------------------|
G|-5--5--5--5--5--5--5--5--5--5--5--5--5--5--5--5--|
D|-x--x--x--x--x--x--x--x--5--5--5--5--5--5--5--5--|
A|-3--3--3--3--3--3--3--3--------------------------|
E|-------------------------------------------------|

 No, girlfriends, they won't understand
e|-------------------------------------------------|
B|-------------------------------------------------|
G|-------------------------------------------------|
D|-10-10-10-10-10-10-10-10-10-10-10-10-10-10-10-10-|
A|-x--x--x--x--x--x--x--x--x--x--x--x--x--x--x--x--|
E|-8--8--8--8--8--8--8--8--8--8--8--8--8--8--8--8--|
|
|
e|-------------------------------------------------|
B|-------------------------------------------------|
G|-5--5--5--5--5--5--5--5--5--5--5--5--5--5--5--5--|
D|-x--x--x--x--x--x--x--x--5--5--5--5--5--5--5--5--|
A|-3--3--3--3--3--3--3--3--------------------------|
E|-------------------------------------------------|

 On spaceships, they won't understand
e|-------------------------------------------------|
B|-------------------------------------------------|
G|-------------------------------------------------|
D|-10-10-10-10-10-10-10-10-10-10-10-10-10-10-10-10-|
A|-x--x--x--x--x--x--x--x--x--x--x--x--x--x--x--x--|
E|-8--8--8--8--8--8--8--8--8--8--8--8--8--8--8--8--|
|
|
e|-------------------------------------------------|
B|-------------------------------------------------|
G|-------------------------------------------------|
D|-5--5--5--5--5--5--5--5--5--5--5--5--5--5--5--5--|
A|-3--3--3--3--3--3--3--3--5--5--5--5--5--5--5--5--|
E|-------------------------------------------------|

 And me, I ain't ever gonna understand shit...
e|-------------------------------------------------|
B|-------------------------------------------------|
G|-------------------------------------------------|
D|-10-10-10-10-10-10-10-10-10-10-10-10-10-10-10-10-|
A|-x--x--x--x--x--x--x--x--x--x--x--x--x--x--x--x--|
E|-8--8--8--8--8--8--8--8--8--8--8--8--8--8--8--8--|
|
|
e|-------------------------------------------------|
B|-------------------------------------------------|
G|-------------------------------------------------|
D|-5--5--5--5--5--5--5--5--5--5--5--5--5--5--5--5--|
A|-3--3--3--3--3--3--3--3--5--5--5--5--5--5--5--5--|
E|-------------------------------------------------|


[Verse]

C                                 F
Last nite, she said, "Oh, baby, I feel so down.

        G                    Em
Oh, it turns me off, when I feel left out."

C                                           F
So I, I turn 'round, "Oh, little girl, don't care no more.

        G                         Em
I know this for sure, I'm walkin' out that door..." Yeah...


[OUTRO] (3:03)

e|-------------------------------------------------|
B|-------------------------------------------------|
G|-------------------------------------------------|
D|-10-10-10-10-10-10-10-10-10-10-10-10-10-10-10-10-|
A|-x--x--x--x--x--x--x--x--x--x--x--x--x--x--x--x--|
E|-8--8--8--8--8--8--8--8--8--8--8--8--8--8--8--8--|


e|-------------------------------------------------|
B|-------------------------------------------------|
G|-5--5--5--5--5--5--5--5--5--5--5--5--5--5--5--5--|
D|-x--x--x--x--x--x--x--x--5--5--5--5--5--5--5--5--|
A|-3--3--3--3--3--3--3--3--------------------------|
E|-------------------------------------------------|


 Guitar 1 (Guitar 2 stops)
e|----------------------------------|
B|----------------------------------|
G|----------------------------------|
D|-10-10-10-10-10-10-10-10-10-10-10-|
A|-x--x--x--x--x--x--x--x--x--x--x--|
E|-8--8--8--8--8--8--8--8--8--8--8--| x2



************************************

| x    Dead note
| (n)  Ghost note
| p    Pull-off
| b    Bend
| /    Slide up
| \    Slide down 

************************************

            
            
Suggest correction
Creating personal tab
Creating personal tab
You can edit any tab online and save it as your Personal.

You can edit, replace or remove any tab part or add personal notes – all changes will be seen only by you.

Personal tabs can be accessed anytime from any device, even offline.
Learn more »
comments
print report bad tab
10 comments total. Showing first comments.
0 reply
George_Louca 10 Feb 25, 2010 08:11 AM

Thanks for the tab, Great TAB! :D

0 reply
justins03 376 Mar 28, 2010 07:09 AM

good job man. sounds good.

+5 reply
samd23 87 Feb 15, 2011 09:32 AM

this is good but not perfect
the verse goes as follows:
C
Last night, she said, 'oh baby
Dm
i feel so down...
G
they turn me off,
Em G
and i feel left out...'

so there's a Dm, not an F, and you only play the Em for hald a bar before going back to the C.
****ing danknoe

guest
You may want to rate the tab now too:
select rating
Wanna post a correction for this tab? Suggest correction