Oops, an error
Loading. Please wait.

Razor Blade bass

version 1
version 1

Whole song

Interactive

6,181 views 3 this week
2 commentsread comments
1 2 3 4 5
x 7
add to favorites
×
Save as Personal and add changes to this tab that will be seen only by you. Learn more ›
×
You can save this tab as Personal to edit and correct it or add notes. All changes will be seen only by you. Learn more »
launch autoscroll
font size
0
reset
guitar tuner
edit
Autoscroll
slow
fast
+/-
esc
set tempo
stop
Author
Difficulty
Razorblade
The Strokes
Tabbed By:Akonite
e-mail:akonite@gmail.com
Tuning:Standard

Riff A
G|-----------------|
D|-----------------|
A|0-00----2-22-2-22|
E|----2-22---------| (x2)

G|--------------------|
D|--------------------|
A|5-5-5-555--2-2-2-222|
E|--------------------|

Riff B
G|---------|--------|----6----|----7---|---------|
D|------2--|--------|------7--|0-4---4\|----6----|
A|0-2-4---4|----4---|4-7-----7|--------|4-7---7-4|
E|---------|2-5---5\|---------|--------|---------|

G|--------------------|
D|--------------------|
A|7-7-7-777--5-5-5-555|
E|--------------------|

Riff C
G|------------------------------------------|
D|------------------------------------------|
A|0-0-0-000-------------2-2-2-222--2-2-2-222|
E|-----------2-2-2-222----------------------|

Riff D
G|--|
D|--|
A|0r|
E|--|

Song Structure
Riff A
Riff B - x2
Riff C - x2
Riff A 
Riff D
Riff B - x2
Riff C - x5
Riff A
Riff D

| \  Slide down
| r  Let ring
============================================================================

            
            
Suggest correction
Creating personal tab
Creating personal tab
You can edit any tab online and save it as your Personal.

You can edit, replace or remove any tab part or add personal notes – all changes will be seen only by you.

Personal tabs can be accessed anytime from any device, even offline.
Learn more »
comments
print report bad tab
2 comments total.
0 reply
sotoonfire 20 Oct 29, 2006 04:43 PM

Very Special Akonite.

0 reply
MusicMustChange 211 Feb 03, 2007 10:27 AM

non ha nulla a che fare con la ver Razor Blade che si suona tutta in alto e ha più note nella prima parte della strofa e meno nella seconda

guest
You may want to rate the tab now too:
select rating
Wanna post a correction for this tab? Suggest correction