Oops, an error
Loading. Please wait.

Reptilla bass

6,668 views 3 this week
1 commentread comment
1 2 3 4 5
x 5
add to favorites
×
Save as Personal and add changes to this tab that will be seen only by you. Learn more ›
×
You can save this tab as Personal to edit and correct it or add notes. All changes will be seen only by you. Learn more »
launch autoscroll
font size
0
reset
guitar tuner
edit
Autoscroll
slow
fast
+/-
esc
set tempo
stop
Author
Difficulty
This is my first tab so please rate.

0:00
G|44444444|
D|--------|
A|--------| 8 times
E|--------|


0:12
G|--------|--------|--------|--------|
D|--------|--------|22222222|22222222|
A|22222222|22222222|--------|--------| 4 times
E|--------|--------|--------|--------|


0:49
G|--------|--------|--------|--------|
D|--------|--------|22222222|22222222|
A|22222222|22222222|--------|--------| 4 times
B|--------|--------|--------|--------|


1:19
G|--------|00-022-2|00-022-2|776644--|
D|--------|--------|--------|------44|
A|22-24455|--------|--------|--------| 3 times
B|--------|--------|--------|--------|


1:37
G|--------|00002222|00002222|776644--|
D|--------|--------|--------|------44|
A|22224455|--------|--------|--------| 2 times
B|--------|--------|--------|--------|


1:50
G|44444444|44444444|--------|--------|
D|--------|--------|22222222|22222222|
A|--------|--------|--------|--------| 6 times
E|--------|--------|--------|--------|


2:26
G|--------|--------|--------|--------|
D|--------|--------|22222222|22222222|
A|22222222|22222222|--------|--------| 8 times
E|--------|--------|--------|--------|


2:56
G|--------|00-022-2|00-022-2|776644--|
D|--------|--------|--------|------44|
A|22-24455|--------|--------|--------| 3 times
E|--------|--------|--------|--------|


3:14
G|--------|00002222|00002222|776644--|
D|--------|--------|--------|------44|
A|22224455|--------|--------|--------| 2 times
E|--------|--------|--------|--------|


3:27
G|44444444|
D|--------|
A|--------| Till End
E|--------|


            
            
Suggest correction
Creating personal tab
Creating personal tab
You can edit any tab online and save it as your Personal.

You can edit, replace or remove any tab part or add personal notes – all changes will be seen only by you.

Personal tabs can be accessed anytime from any device, even offline.
Learn more »
comments
print report bad tab
1 comment total.
0 reply
Akonite 358 Feb 25, 2010 10:40 AM

nice job for a first tab, there's nothing explicitly wrong here there's just easier ways to play it.

guest
You may want to rate the tab now too:
select rating
Wanna post a correction for this tab? Suggest correction