Oops, an error
Loading. Please wait.

Reptillia bass

version 1
version 1

Whole song

Interactive

14,018 views 6 this week
4 commentsread comments
1 2 3 4 5
x 11
add to favorites
×
Save as Personal and add changes to this tab that will be seen only by you. Learn more ›
×
You can save this tab as Personal to edit and correct it or add notes. All changes will be seen only by you. Learn more »
launch autoscroll
font size
0
reset
guitar tuner
edit
Autoscroll
slow
fast
+/-
esc
set tempo
stop
Author
Intro:

G|----------------
D|9999999999999999
A|----------------| x4
E|----------------|

G|----------------------------------|
D|----------------------------------|
A|----------------7777777777777777--| x4
E|7777777777777777------------------|

Verse:

G|----------------------------------|
D|----------------------------------|
A|----------------7777777777777777--| x3
E|7777777777777777------------------|

Chorus:
  1   2   3   4   1   2   3   4   
G|--------------------------------\
D|-------------------------------- \
A|2-2---2-4-4-5-5-----------------  \
E|----------------3-3---3-5-5---5-   \
                                      x3
  1   2   3   4   1   2   3   4   
G|--------------------------------   /
D|--------------------------------  /
A|----------------5-5-4-4-2-2----- /
E|3-3---3-5-5---5-------------2-2-/

  1   2   3   4   1   2   3   4   
G|--------------------------------\
D|-------------------------------- \
A|2-2-2-2-4-4-5-5-----------------  \
E|----------------3-3-3-3-5-5-5-5-   \
                                      x2
  1   2   3   4   1   2   3   4   
G|--------------------------------   /
D|--------------------------------  /
A|----------------5-5-4-4-2-2----- /
E|3-3-3-3-5-5-5-5-------------2-2-/


Solo:

G|---------------------------------|
D|9999999999999999-----------------|
A|----------------7777777777777777-|
E|---------------------------------|

G|----------------------------------|
D|----------------------------------|
A|----------------7777777777777777--| x3
E|7777777777777777------------------|

Outro:

G|----------------
D|9999999999999999
A|----------------| x4
E|----------------|

Whole song:

Intro
Verse
Chorus
Solo
Verse
Chorus
Outro

            
            
Suggest correction
Creating personal tab
Creating personal tab
You can edit any tab online and save it as your Personal.

You can edit, replace or remove any tab part or add personal notes – all changes will be seen only by you.

Personal tabs can be accessed anytime from any device, even offline.
Learn more »
comments
print report bad tab
4 comments total. Showing first comments.
0 reply
dynodave 10 Oct 19, 2009 09:50 AM

I have no idea why this has been voted 1 star twice, cos it seems fairly spot on to me mate.

-1 reply
camtheman3x6 10 Jan 25, 2010 06:32 AM

i'll give it a two, its completley wrong. but the main idea is right. so a 2, not a 1.

-1 reply
Akonite 358 Feb 25, 2010 10:38 AM

no its not completely wrong....
the intro/verse are correct but your chorus is off

guest
You may want to rate the tab now too:
select rating
Wanna post a correction for this tab? Suggest correction