Oops, an error
Loading. Please wait.

Reptillia bass

version 2
version 2

Whole song

Interactive

10,219 views 15 this week
3 commentsread comments
1 2 3 4 5
x 8
add to favorites
×
Save as Personal and add changes to this tab that will be seen only by you. Learn more ›
×
You can save this tab as Personal to edit and correct it or add notes. All changes will be seen only by you. Learn more »
launch autoscroll
font size
0
reset
guitar tuner
edit
Autoscroll
slow
fast
+/-
esc
set tempo
stop
Author
Difficulty
Artist: Strokes
Song: Reptillia

This is a better version to get a richer sound out of the chorus. Easier to play 
chorus and roll into bridge. 

Intro
G |--------------------------------|--------------------------------|
D |9-9-9-9-9-9-9-9-9-9-9-9-9-9-9-9-|9-9-9-9-9-9-9-9-9-9-9-9-9-9-9-9-|
A |--------------------------------|--------------------------------|
E |--------------------------------|--------------------------------|x2

(0:14)
G|--------------------------------|--------------------------------|
D|--------------------------------|--------------------------------|
A|--------------------------------|7-7-7-7-7-7-7-7-7-7-7-7-7-7-7-7-|
E|7-7-7-7-7-7-7-7-7-7-7-7-7-7-7-7-|--------------------------------|x4


Verse:
Rest 4 Bars
(0:50)
G|--------------------------------|--------------------------------|
D|--------------------------------|--------------------------------|
A|--------------------------------|7-7-7-7-7-7-7-7-7-7-7-7-7-7-7-7-|
E|7-7-7-7-7-7-7-7-7-7-7-7-7-7-7-7-|--------------------------------|x4

Chorus 1
Guitar solo first x1
(1:20)
G |-----------------------------------------------------|
D |-----------------------------------12121111-99-------|
A |-----------1010-1212-121010-101212------------99-----|
E |77-7991010-------------------------------------------|x3

G|-----------------------------------------------------|
D|-------------------------------------12121111-99-----|
A|-----------10101012121212101010121212------------99--|
E|7777991010-------------------------------------------|x2
 

Bridge/Verse
(1:51)
G|--------------------------------|--------------------------------|
D|9-9-9-9-9-9-9-9-9-9-9-9-9-9-9-9-|--------------------------------|
A|--------------------------------|7-7-7-7-7-7-7-7-7-7-7-7-7-7-7-7-|
E|--------------------------------|--------------------------------|x6


Verse:
(2:27)
G|--------------------------------|--------------------------------|
D|--------------------------------|--------------------------------|
A|--------------------------------|7-7-7-7-7-7-7-7-7-7-7-7-7-7-7-7-|
E|7-7-7-7-7-7-7-7-7-7-7-7-7-7-7-7-|--------------------------------|x4



Chorus 2
Guitar solo first x1
(2:58)
G|-----------------------------------------------------|
D|-----------------------------------12121111-99-------|
A|-----------1010-1212-121010-101212------------99-----|
E|77-7991010-------------------------------------------|x3

G|-----------------------------------------------------|
D|-------------------------------------12121111-99-----|
A|-----------10101012121212101010121212------------99--|
E|7777991010-------------------------------------------|x2

Outro
(3:28)
G|--------------------------------|--------------------------------|
D|9-9-9-9-9-9-9-9-9-9-9-9-9-9-9-9-|9-9-9-9-9-9-9-9-9-9-9-9-9-9-9-9-|
A|--------------------------------|--------------------------------|
E|--------------------------------|--------------------------------|x2

            
            
Suggest correction
Creating personal tab
Creating personal tab
You can edit any tab online and save it as your Personal.

You can edit, replace or remove any tab part or add personal notes – all changes will be seen only by you.

Personal tabs can be accessed anytime from any device, even offline.
Learn more »
comments
print report bad tab
3 comments total.
0 reply
swave75 382 Nov 07, 2012 05:24 PM

Freaking excellent dude!!!

0 reply
CarlSundien 10 Aug 02, 2013 05:02 AM

Nice job, mate!

0 reply
matt.hilley 96 Sep 05, 2017 08:34 AM

Great tab!

guest
You may want to rate the tab now too:
select rating
Wanna post a correction for this tab? Suggest correction