Oops, an error
Loading. Please wait.
We have an official Someday tab made by UG professional guitarists. Check out the tab »
×
35,822 views 48 this week
7 commentsread comments
1 2 3 4 5
x 39
add to favorites
×
Save as Personal and add changes to this tab that will be seen only by you. Learn more ›
×
You can save this tab as Personal to edit and correct it or add notes. All changes will be seen only by you. Learn more »
launch autoscroll
font size
0
reset
guitar tuner
backing track
0:00
0:00
edit
Autoscroll
slow
fast
+/-
esc
set tempo
stop
Author
Unregistered
G:---------------------|
D:----------0-0--------|
A:0-0--2-2-------0-0---|  X6
E:---------------------|

G:-----------------------------------------------------|
D:----------0-2-0----4-2-0-0-0-0-0-0-0-0---------------|
A:----0-0-0------------------------------0-0-0-0-0-0---|  X4
E:0-2-------------2------------------------------------|

G:--------------------------------------------------------------------|
D:--------------------------------------------------------------------|
A:0-0-----------------------------------------------------------------|
E:----0-0-0-0-0-0-0-0-0-0-0-0-0-0-0-0-0-0-0-0-0-0-0-0-0-0-0-0-0-0-0-0-|

G:--------------------|
D:----------0-0-------|
A:0-0--2-2-------0-0--| X4
E:--------------------|

G:-----------------------------------------------------|
D:----------0-2-0----4-2-0-0-0-0-0-0-0-0---------------|
A:----0-0-0------------------------------0-0-0-0-0-0---|  X4
E:0-2-------------2------------------------------------|

G:----------------------------------------------------------------------|
D:----------------------------------------------------------------------|
A:0-0-----------------------------------------------------------------0-|
E:----0-0-0-0-0-0-0-0-0-0-0-0-0-0-0-0-0-0-0-0-0-0-0-0-0-0-0-0-0-0-0-0---|

            
            
Suggest correction
Creating personal tab
Creating personal tab
You can edit any tab online and save it as your Personal.

You can edit, replace or remove any tab part or add personal notes – all changes will be seen only by you.

Personal tabs can be accessed anytime from any device, even offline.
Learn more »
comments
print report bad tab
7 comments total. Showing first comments.
0 reply
JohnLennon1984 110 Jan 17, 2003 07:00 PM

uh, who submitted this? it's better than ver1, yet it's still not perfect.

0 reply
drumz0rz 10 Feb 08, 2006 02:57 PM

the chorus is wrong

+2 reply
TheSock89 10 Jan 08, 2007 02:18 PM

chorus is a little off.
this is what I've come up with in regards to your work


G:--------------------------------------------------
D:----------0-2-----4-2-0-0-0-0-0-0-0-0------------
A:----0-0-0-----4-------------------------0-0-0-0-0-0 X4
E:0-2-------------2---------------------------------

the only thing that I changed was making that one D into a Db, as it completes the chord that way. you were a semitone off, which caused the unwanted dissonance.

guest
Wanna post a correction for this tab? Suggest correction