Oops, an error
Loading. Please wait.
We have an official Take It Or Leave It tab made by UG professional guitarists. Check out the tab »
×
15,149 views 18 this week
2 commentsread comments
1 2 3 4 5
x 11
add to favorites
×
Save as Personal and add changes to this tab that will be seen only by you. Learn more ›
×
You can save this tab as Personal to edit and correct it or add notes. All changes will be seen only by you. Learn more »
launch autoscroll
font size
0
reset
guitar tuner
backing track
0:00
0:00
edit
Autoscroll
slow
fast
+/-
esc
set tempo
stop
Author
Tabbed by: "Death VII" Jonatan Maldonado Loranca
            albion_thevultures@hotmail.com 

INTRO
G|------------------------------|
D|-----------12~~~~----10~~~~---|
A|-12~--11~---------------------|
E|------------------------------|

VERSE (Bass starts at the same time as Julian)  
G|---------------------|
D|---------------------|
A|-3333---1111---5555--|X2
E|---------------------|

G|---------------------|
D|---------------------|
A|-3-3--3/1~\5~---5~---|
E|---------------------| 

G|----------------------------------|
D|----------------------------------|
A|33333333/11111111\5555555555555555|X2
E|----------------------------------|

G|--------|
D|--------|
A|3x30\12-|
E|--------|

CHORUS
G|-------------------------------------------------------------------------|
D|-------------------------12-12-12-12-12-12-12-12-10-10-10-10-10-10-10-10-|
A|-12-12-12-12-11-11-11-11-------------------------------------------------|x5 
E|-------------------------------------------------------------------------|

G|-----------------------------------------------------------------------|
D|-------------------------12-12-12-12-12-12-12-12-12-12-12-12-12-12-12/-|
A|-12-12-12-12-11-11-11-11-----------------------------------------------| 
E|-----------------------------------------------------------------------|

VERSE (Starts with Julian)
G|---------------------|
D|---------------------|
A|-3333---1111---5555--|X2
E|---------------------|

G|---------------------|
D|---------------------|
A|-3-3--3/1~\5~---5~---|
E|---------------------| 

G|----------------------------------|
D|----------------------------------|
A|33333333/11111111\5555555555555555|
E|----------------------------------|

G|----------------------------------|
D|-----------------------3----------|
A|33333333/11111111\5~~~~-5~~~~-----|
E|----------------------------------|
  
SOLO (Starts with Hammond's Solo)
G|---------------------------------|
D|---------------------------------|X4 With Palm Mute
A|-33333---33333---33333---33333---|   or low volume     
E|-------4-------4-------4-------4-|

G|---------------------------------|
D|---------------------------------|
A|-33333---33333---33333---33333---|
E|-------4-------4-------4-------4-|

G|-------------------------------------|
D|-------------------------------------|
A|-33333---33333---33333---33333333\12-|
E|-------4-------4-------4-------------|

CHORUS
G|-------------------------------------------------------------------------|
D|-------------------------12-12-12-12-12-12-12-12-10-10-10-10-10-10-10-10-|
A|-12-12-12-12-11-11-11-11-------------------------------------------------|x5 
E|-------------------------------------------------------------------------|

G|-----------------------------------------------------------------------|
D|-------------------------12-12-12-12-12-12-12-12-12-12-12-12-12-12-12/-|
A|-12-12-12-12-11-11-11-11-----------------------------------------------| 
E|-----------------------------------------------------------------------|

ENDING
G|--------------------|
D|--------------------| 
A|-33333---33333------|
E|-------4-------4~~/-|

Key:
/     - Slide up
\     - Slide down
PM    - Palm mute
~     - Let ring/vibrato

            
            
Suggest correction
Creating personal tab
Creating personal tab
You can edit any tab online and save it as your Personal.

You can edit, replace or remove any tab part or add personal notes – all changes will be seen only by you.

Personal tabs can be accessed anytime from any device, even offline.
Learn more »
comments
print report bad tab
2 comments total.
0 reply
ohhleo 81 Apr 07, 2011 08:38 AM

Well for me the chorus sounds like this:

G|-------------------------10-10-10-10-10-10-10-10-9--9--9--9--9--9--9--9--|
D|-------------------------12-12-12-12-12-12-12-12-10-10-10-10-10-10-10-10-|
A|-12-12-12-12-11-11-11-11-------------------------------------------------|
E|-------------------------------------------------------------------------|


I cant's play it though. So I think your version is way better to play :)
Maybe they put another bass over the original in the record.

0 reply
ohhleo 81 Apr 07, 2011 08:39 AM

oops: I mean I cannot play it.

guest
You may want to rate the tab now too:
select rating
Wanna post a correction for this tab? Suggest correction