Oops, an error
Loading. Please wait.
We have an official Tap Out tab made by UG professional guitarists. Check out the tab »
×
7,688 views 9 this week
1 commentread comment
1 2 3 4 5
x 7
add to favorites
×
Save as Personal and add changes to this tab that will be seen only by you. Learn more ›
×
You can save this tab as Personal to edit and correct it or add notes. All changes will be seen only by you. Learn more »
launch autoscroll
font size
0
reset
guitar tuner
backing track
0:00
0:00
edit
Autoscroll
slow
fast
+/-
esc
set tempo
stop
Intro

G|-------------------------------------------------------------------------------|
D|-11-11---11-11---11---7-----7---7---9---9---9-9---9---11------11---------------|
A|-------------------------------------------------------------------------------| x3
E|-------------------------------------------------------------------------------|

G|-------------------------------------------------------------------------------|
D|-7--7----7--7----7----9-----9---9---6---6---6-6---6---7-------7----------------|
A|-------------------------------------------------------------------------------|
E|-------------------------------------------------------------------------------|

Verse 1

G|-------------------------------------------------------------------------------|
D|-11-11---11-11---11---7-----7---7---9---9---9-9---9---11------11---------------|
A|-------------------------------------------------------------------------------| x3
E|-------------------------------------------------------------------------------|

G|-------------------------------------------------------------------------------|
D|-7--7----7--7----7----9-----9---9---6---6---6-6---6---7-------7----------------|
A|-------------------------------------------------------------------------------|
E|-------------------------------------------------------------------------------|

Pre-Chorus 1

G|-------------------------------------------------------------------------------|
D|-------------------------------------------------------------------------------|
A|-------------------------------------------------------------------------------|
E|-5-------5-------5-------5-------7-------7-------7-------7---------------------|

G|-------------------------------------------------------------------------------|
D|-11--------------11----------------------11------13------14--------------------|
A|-------------------------------------------------------------------------------|
E|---------9---------------9-------12--------------------------------------------|

G|-------------------------------------------------------------------------------|
D|-------------------------------------------------------------------------------|
A|-12-12-12-12-----12-12---12-12-------------------------------------------------|
E|-------------------------------------------------------------------------------|

Chorus 1

G|-------------------------------------------------------------------------------|
D|-------------------------------------------------------------------------------|
A|---------------------------------9---9--9----9---9---9-9-----------------------|
E|-12-12----------12-12----------------------------------------------------------|

G|-------------------------------------------------------------------------------|
D|-----------------------------------------------------------13-13-14-14---------|
A|-12-12-----------12-12-----------12--12-12---12--12--14-14-------------12-12---|
E|-------------------------------------------------------------------------------|

G|-------------------------------------------------------------------------------|
D|-------------------------------------------------------------------------------|
A|---------------------------------9---9--9----9---9---9-9-----------------------|
E|-12-12----------12-12----------------------------------------------------------|

G|-------------------------------------------------------------------------------|
D|---------------------------------------------------------------9-9-11-11-------|
A|-12-12-----------12-12-----------12--12-12---12--12------11-11-----------------|
E|-----------------------------------------------------9-9-----------------------|

G|-------------------------------------------------------------------------------|
D|-------------------------------------------------------------------------------|
A|-7-7-------------7-7-------------9---9--9----9---9---9-9-----------------------|
E|-------------------------------------------------------------------------------|

G|-------------------------------------------------------------------------------|
D|-----------------------------------------------------------13-13-14-14---------|
A|-12-12-----------12-12-----------12--12-12---12--12--14-14-------------12-12---|
E|-------------------------------------------------------------------------------|

G|-------------------------------------------------------------------------------|
D|-------------------------------------------------------------------------------|
A|---------------------------------9---9--9----9---9---9-9-----------------------|
E|-12-12----------12-12----------------------------------------------------------|

G|-------------------------------------------------------------------------------|
D|---------------------------------------------------------------9-9-11-11-------|
A|-12-12-----------12-12-----------12--12-12---12--12------11-11-----------------|
E|-----------------------------------------------------9-9-----------------------|

After-Chorus 1

G|-------------------------------------------------------------------------------|
D|-9-----9-----6-9-7-6-----6-----------------------------------------------------|
A|---------------------9-7---9-7-6-----------------------------------------------|
E|-------------------------------------------------------------------------------|

G|-------------------------------------------------------------------------------|
D|-11---------------7---------------9--------------------------------------------|
A|-------------------------------------------------------------------------------| 
E|--------------------------------------------------9----------------------------|

G|-------------------------------------------------------------------------------|
D|-11---------------7---------------9------------------------------9-------------|
A|--------------------------------------------------------------11---------------|
E|--------------------------------------------------9----------------------------|

Verse 2

G|-------------------------------------------------------------------------------|
D|-11--------------7---------------9---------------------------------------------|
A|-------------------------------------------------------------------------------|
E|-------------------------------------------------9-----------------------------|

G|-------------------------------------------------------------------------------|
D|-11--------------7---------------9---------------------------------------------|
A|-------------------------------------------------------------------------------|
E|-------------------------------------------------9-9---------------------------|

G|-------------------------------------------------------------------------------|
D|-11--------------7---------------9---------------------------------------------|
A|-------------------------------------------------------------------------------|
E|-------------------------------------------------9-9---------------------------|

G|-------------------------------------------------------------------------------|
D|-7---------------9---------------6---------------7-----------------------------|
A|-------------------------------------------------------------------------------|
E|-------------------------------------------------------------------------------|

Pre-Chorus 2

G|-------------------------------------------------------------------------------|
D|-------------------------------------------------------------------------------|
A|-------------------------------------------------------------------------------|
E|-5-------5-------5-------5-------7-------7-------7-------7---------------------|

G|-------------------------------------------------------------------------------|
D|-11--------------11----------------------11------13------14--------------------|
A|-------------------------------------------------------------------------------|
E|---------9---------------9-------12--------------------------------------------|

G|-------------------------------------------------------------------------------|
D|-------------------------------------------------------------------------------|
A|-12-12-12-12-----12-12---12-12-------------------------------------------------|
E|-------------------------------------------------------------------------------|   

Chorus 2

G|-------------------------------------------------------------------------------|
D|-------------------------------------------------------------------------------|
A|---------------------------------9---9--9----9---9---9-9-----------------------|
E|-12-12----------12-12----------------------------------------------------------|

G|-------------------------------------------------------------------------------|
D|-----------------------------------------------------------13-13-14-14---------|
A|-12-12-----------12-12-----------12--12-12---12--12--14-14-------------12-12---|
E|-------------------------------------------------------------------------------|

G|-------------------------------------------------------------------------------|
D|-------------------------------------------------------------------------------|
A|---------------------------------9---9--9----9---9---9-9-----------------------|
E|-12-12----------12-12----------------------------------------------------------|

G|-------------------------------------------------------------------------------|
D|---------------------------------------------------------------9-9-11-11-------|
A|-12-12-----------12-12-----------12--12-12---12--12------11-11-----------------|
E|-----------------------------------------------------9-9-----------------------|

G|-------------------------------------------------------------------------------|
D|-------------------------------------------------------------------------------|
A|-7-7-------------7-7-------------9---9--9----9---9---9-9-----------------------|
E|-------------------------------------------------------------------------------|

G|-------------------------------------------------------------------------------|
D|-----------------------------------------------------------13-13-14-14---------|
A|-12-12-----------12-12-----------12--12-12---12--12--14-14-------------12-12---|
E|-------------------------------------------------------------------------------|

G|-------------------------------------------------------------------------------|
D|-------------------------------------------------------------------------------|
A|---------------------------------9---9--9----9---9---9-9-----------------------|
E|-12-12----------12-12----------------------------------------------------------|

G|-------------------------------------------------------------------------------|
D|-------------------------------------------------------------------------------|
A|-12-12-----------12-12-----------12--12-12---12--12--12-12-11-11-12-11-9-------|
E|-------------------------------------------------------------------------12----|

Bridge/Solo

G|-------------------------------------------------------------------------------|
D|-------------------------------------------------------------------------------|
A|-------------------------------------------------------------------------------|
E|-9-9---9-----9---5-5---5---5---7---7---7-7---7---7-----7-----------------------|

G|-------------------------------------------------------------------------------|
D|-------------------------------------------------------------------------------|
A|-------------------------------------------------------------------------------|
E|-9-9---9-----9---5-5---5---5---7---7---7-7---7---7-----7-----4-7---------------|

G|-------------------------------------------------------------------------------|
D|-------------------------------------------------------------------------------|
A|-------------------------------------------------------------------------------|
E|-9-9---9-----9---5-5---5---5---7---7---7-7---7---7-7---7-----4-7---------------|

G|-------------------------------------------------------------------------------|
D|-------------------------------------------------------------------------------|
A|-------------------------------------------------------------------------------|
E|-5-5---5-5---5---7-----7---7---4---4---4-4---4---5-5---5-----------------------|

Chorus 3A


G|-------------------------------------------------------------------------------|
D|-------------------------------------------------------------------------------|
A|-7-7-------------7-7-------------9---9--9----9---9---9-9-----------------------|
E|-------------------------------------------------------------------------------|

G|-------------------------------------------------------------------------------|
D|-----------------------------------------------------------13-13-14-14---------|
A|-12-12-----------12-12-----------12--12-12---12--12--14-14-------------12-12---|
E|-------------------------------------------------------------------------------|

G|-------------------------------------------------------------------------------|
D|-------------------------------------------------------------------------------|
A|---------------------------------9---9--9----9---9---9-9-----------------------|
E|-12-12----------12-12-----------------------------------------------------------|

G|-------------------------------------------------------------------------------|
D|---------------------------------------------------------------9-9-11-11-------|
A|-12-12-----------12-12-----------12--12-12---12--12------11-11-----------------|
E|-----------------------------------------------------9-9-----------------------|
                                                                                    __
G|-------------------------------------------------------------------------------|    |
D|-------------------------------------------------------------------------------|    |
A|-7-7-------------7-7-------------9---9--9----9---9---9-9-----------------------|    |
E|-------------------------------------------------------------------------------|    |
                                                                                      |
G|-------------------------------------------------------------------------------|    |
D|-----------------------------------------------------------13-13-14-14---------|    |
A|-12-12-----------12-12-----------12--12-12---12--12--14-14-------------12-12---|    |
E|-------------------------------------------------------------------------------|    |
                                                                                      | x2
G|-------------------------------------------------------------------------------|    |
D|-------------------------------------------------------------------------------|    |
A|---------------------------------9---9--9----9---9---9-9-----------------------|    |
E|-12-12----------12-12----------------------------------------------------------|    |
                                                                                      |
G|-------------------------------------------------------------------------------|    |
D|---------------------------------------------------------------9-9-11-11-------|    |
A|-12-12-----------12-12-----------12--12-12---12--12------11-11-----------------|    |
E|-----------------------------------------------------9-9-----------------------|  __|

            
            
Suggest correction
Creating personal tab
Creating personal tab
You can edit any tab online and save it as your Personal.

You can edit, replace or remove any tab part or add personal notes – all changes will be seen only by you.

Personal tabs can be accessed anytime from any device, even offline.
Learn more »
comments
print report bad tab
1 comment total.
-1 reply
mahomy 126 Apr 12, 2013 03:27 PM

Decent tab. nailed most of the notes.

guest
You may want to rate the tab now too:
select rating
Wanna post a correction for this tab? Suggest correction