Oops, an error
Loading. Please wait.
We have an official The End Has No End tab made by UG professional guitarists. Check out the tab »
×
7,295 views 6 this week
1 commentread comment
1 2 3 4 5
x 4
add to favorites
×
Save as Personal and add changes to this tab that will be seen only by you. Learn more ›
×
You can save this tab as Personal to edit and correct it or add notes. All changes will be seen only by you. Learn more »
launch autoscroll
font size
0
reset
guitar tuner
edit
Autoscroll
slow
fast
+/-
esc
set tempo
stop
Author
The End Has No End |Tabbed by Bobbyroana/Andy(acder1@live.co.uk)

Intro
G|------------------------------|(A)
D|7-7-7-7-7------6-6-6-6-6------|
A|---------7-7-7-----------6-6-6|
E|------------------------------|

G|-----------------------------------------------------------------------------------------------|(B)
D|-----------------------------------------------------------------------------------------------|
A|-----------------------------------------------------------------------------------------------|
E|9-9-9-9-9-9-9-9-9-9-9-9-9-9-9---4-4-4-4-4-4-4-4-4-4-4-4-4-4-4-4-4------------------------------|x2

G|-----------------------------------------------------------------------------------------------|(C)
D|-----------------------------------------------------------------------------------------------|
A|----------------------------------8-8-8-8-8-8-8-8-8-8-8----------------------------------------|
E|9-9-9-9-9-9-9--6-6-6-6-6-6-6-6-6----------------------------4-4-4-4-4-4-4-4-4-4-4--------------|x2

G|-----------------------------------------------------------------------------------------------|(D)
D|-----------------------------------------------------------------------------------------------|
A|-----------------------------------------------------------------------------------------------|
E|9-9-9-9-9-9-9-9-9---6-6-6-6-6-6-6-6-6---1-1-1-1-1-1-1-1-1-1-1----4-4-4-4-4-4-4-4-4-4-4---------|x1


G|-----------------------------------------------------------------------------------------------|(C)
D|-----------------------------------------------------------------------------------------------|
A|----------------------------------8-8-8-8-8-8-8-8-8-8-8-8-8-8-8-8-8-8-8-8-8--------------------|
E|9-9-9-9-9-9-9--6-6-6-6-6-6-6-6-6----------------------------------------------4-4-4-4-4-4-4-4-4|x2

Chorus :

G|-----------------------------------------------------------------------------------------------|(E)
D|-----------------------------------------------------------------------------------------------|
A|------------------4-4-4-4-4-4-4-4-4-4--------------------6-6-6-6-6-6-6-6-6---------------------|
E|2-2-2-2-2-2-2-2-2----------------------4-4-4-4-4-4-4-4-4---------------------------------------|x2

Repeat B x2, then Cx2, Dx1, Cx1, then do Ex4, and finish with A. Fin. :D

The End Has No End |Tabbed by Bobbyroana/Andy(acder1@live.co.uk)

            
            
Suggest correction
Creating personal tab
Creating personal tab
You can edit any tab online and save it as your Personal.

You can edit, replace or remove any tab part or add personal notes – all changes will be seen only by you.

Personal tabs can be accessed anytime from any device, even offline.
Learn more »
comments
print report bad tab
1 comment total.
0 reply
LilTeaPot 72 Oct 04, 2012 12:41 PM

Great tab! Thanks

guest
You may want to rate the tab now too:
select rating
Wanna post a correction for this tab? Suggest correction