Oops, an error
Loading. Please wait.
We have an official The End Has No End tab made by UG professional guitarists. Check out the tab »
×
22,486 views 3 this week
5 commentsread comments
1 2 3 4 5
x 8
add to favorites
×
Save as Personal and add changes to this tab that will be seen only by you. Learn more ›
×
You can save this tab as Personal to edit and correct it or add notes. All changes will be seen only by you. Learn more »
launch autoscroll
font size
0
reset
how to read this tab
guitar tuner
edit
Autoscroll
slow
fast
+/-
esc
set tempo
stop
Author
Difficulty
This is just the lead guitar part in Verse 2. I'm just posting it because no one seems 
have gotten it right, and personally if I'm looking for this song, this is basically the 
part I want to know because its by far the sweetest riff in the song. So here it is:

Verse 2 - Lead Guitar

     Wont    you     take    a       walk            out
e||------------------------------------------------------------------||
B||------------------14------------------------------14--------------||
G||------11--13--------------11--13------10--13--------------10--13--||
D||--11----------11------11------------------------------------------||
A||----------------------------------13----------13------13----------||
E||------------------------------------------------------------------||

     side                    Oh  No
e||------------------------------------------------------------------||
B||------------------13------------------------------13--------------||
G||------10--13--------------10--13------11--13--------------13--11--||
D||------------------------------------------------------------------||
A||--11----------11------11----------11----------11------11----------||
E||------------------------------------------------------------------||

x3

Last time before chorus:

     Keep    ing     down    the     un              der

e||------------------------------------------------------------------||
B||------------------14------------------------------14--------------||
G||------11--13--------------11--13------10--13--------------10--13--||
D||--11----------11------11------------------------------------------||
A||----------------------------------13----------13------13----------||
E||------------------------------------------------------------------||


     ground                                              Oh  ^Oh Oh

e||------------------------------------------------------------------||
B||------------------13------------------------------13--------------||
G||------10--13--------------10--13------10--13--------------13--11--||
D||------------------------------------------------------------------||
A||--11----------11------11----------11----------11------11----------||
E||------------------------------------------------------------------||


            No

e||------------------------------------------------------------------||
B||-----------------13------------------------------13---------------||
G||-----11--13--------------11--13------11--13-----------------------||
D||------------------------------------------------------------------||
A||--11---------11------11----------11----------11-------------------||
E||------------------------------------------------------------------||

then the chorus

And thats it- please learn it (I had to to write these tabs). Its pretty hard but if you 
get it, it would sound terrific.

            
            
Suggest correction
Creating personal tab
Creating personal tab
You can edit any tab online and save it as your Personal.

You can edit, replace or remove any tab part or add personal notes – all changes will be seen only by you.

Personal tabs can be accessed anytime from any device, even offline.
Learn more »
comments
print report bad tab
5 comments total. Showing first comments.
-2 reply
SheenZula 41 Nov 02, 2007 08:10 AM

isnt it like this?


e|---------------------------------------------------------------------------|
B|--------------14----------------------14-----------------------------------|
G|-----11-13----------11-13----11-13----------11-13--------------------------|
D|--11-------11----11-------10-------10----10--------------------------------|
A|---------------------------------------------------------------------------|
E|---------------------------------------------------------------------------|

e|---------------------------------------------------------------------------|
B|-------------13----------------------13------------------------------------|
G|----11-13----------11-13----11-13----------13-11---------------------------|
D|-10-------10----10-------10-------10----10---------------------------------|
A|---------------------------------------------------------------------------|
E|---------------------------------------------------------------------------|

0 reply
jpq21 58 Nov 02, 2007 02:32 PM

No, if you play it like that it sounds totally different. That way is a bit easier to play, but it doesn't sound like that in the song- esp. in the 10 on the D string.

+1 reply
jpq21 58 Nov 02, 2007 02:37 PM

...also the 11 on the G string the 3rd, 4th, 5th and 6th times (it should be 10)

guest
You may want to rate the tab now too:
select rating
Wanna post a correction for this tab? Suggest correction