Oops, an error
Loading. Please wait.
We have an official Under Control tab made by UG professional guitarists. Check out the tab »
×
9,521 views 21 this week
3 commentsread comments
1 2 3 4 5
x 7
add to favorites
×
Save as Personal and add changes to this tab that will be seen only by you. Learn more ›
×
You can save this tab as Personal to edit and correct it or add notes. All changes will be seen only by you. Learn more »
launch autoscroll
font size
0
reset
guitar tuner
edit
Autoscroll
slow
fast
+/-
esc
set tempo
stop
Author
Tuning: Standard EADG

Verse

G|-----------------|----------------|----------------|----------------|
D|-----------------|----------------|----------------|----------------|
A|-4-4-4-6-6-6-6-6-|6-6-6-4-4-4-4-4-|8-8-8-9-9-9-9-9-|8-9-8-6-6-6-6-6-|
E|-----------------|----------------|----------------|----------------| (x3)

G|-----------------|----------------|----------------|----------------|
D|-----------------|----------------|----------------|----------------|
A|-4-4-4-6-6-6-6-6-|6-6-6-4-4-4-4-4-|8-8-8-6-6-6-6-6-|6-6-6-4-4-4-4-4-|
E|-----------------|----------------|----------------|----------------| (x1)

Chorus

G|---------------------------------|
D|---------------------------------|
A|-----------------6-6-6-6-6-6-6-6-|
E|-4-4-4-4-4-4-4-4-----------------| (x3)

G|--------------------|
D|--------------------|
A|--------------------|
E|-4-4-4-4-4-4-4-4/16-|

Verse

G|-----------------|----------------|----------------|----------------|
D|-----------------|----------------|----------------|----------------|
A|-4-4-4-6-6-6-6-6-|6-6-6-4-4-4-4-4-|8-8-8-9-9-9-9-9-|8-9-8-6-6-6-6-6-|
E|-----------------|----------------|----------------|----------------| (x3)

G|-----------------|----------------|----------------|----------------|
D|-----------------|----------------|----------------|----------------|
A|-4-4-4-6-6-6-6-6-|6-6-6-4-4-4-4-4-|8-8-8-6-6-6-6-6-|6-6-6-4-4-4-4-4-|
E|-----------------|----------------|----------------|----------------| (x1)

Bridge

G|---------------------------------|------------------------------|
D|-4-4-4-4-4-4-4-4-----------------|4-4-4-4-4---------------------|
A|-----------------4-4-4-4-4-4-4-4-|----------0-2-4-4-4-4-4-4-4-4-|
E|---------------------------------|------------------------------| (x2)

Chorus

G|---------------------------------|
D|---------------------------------|
A|-----------------6-6-6-6-6-6-6-6-|
E|-4-4-4-4-4-4-4-4-----------------| (x3)

G|--------------------|
D|--------------------|
A|--------------------|
E|-4-4-4-4-4-4-4-4/16-|

Verse

G|-----------------|----------------|----------------|----------------|
D|-----------------|----------------|----------------|----------------|
A|-4-4-4-6-6-6-6-6-|6-6-6-4-4-4-4-4-|8-8-8-9-9-9-9-9-|8-9-8-6-6-6-6-6-|
E|-----------------|----------------|----------------|----------------| (x3)

G|-----------------|----------------|----------------|----------------|
D|-----------------|----------------|----------------|----------------|
A|-4-4-4-6-6-6-6-6-|6-6-6-4-4-4-4-4-|8-8-8-6-6-6-6-6-|6-6-6-4-4-4-4-4-|
E|-----------------|----------------|----------------|----------------| (x1)

Ending

G|-------------------|
D|-------------------|
A|--8---6----9-8-6-4-|
E|-------------------|

Great tune! Probabaly their best! please rate and give me feedback! thanks guys!


            
            
Suggest correction
Creating personal tab
Creating personal tab
You can edit any tab online and save it as your Personal.

You can edit, replace or remove any tab part or add personal notes – all changes will be seen only by you.

Personal tabs can be accessed anytime from any device, even offline.
Learn more »
comments
print report bad tab
3 comments total. show 1 bad comment
+1 reply
mighty lord o 31 May 27, 2010 02:19 PM

For the verse, the first movement is played only 2 times, not 3.

eg.:

Verse

G|-----------------|----------------|----------------|----------------|
D|-----------------|----------------|----------------|----------------|
A|-4-4-4-6-6-6-6-6-|6-6-6-4-4-4-4-4-|8-8-8-9-9-9-9-9-|8-9-8-6-6-6-6-6-|
E|-----------------|----------------|----------------|----------------|
(x3)

0 reply
mighty lord o 31 May 27, 2010 02:19 PM

^that should be (x2)^

guest
You may want to rate the tab now too:
select rating
Wanna post a correction for this tab? Suggest correction