Oops, an error
Loading. Please wait.

Kiss This chords

version 2
version 2

Whole song

2,515 views 39 this week
no commentswrite comment
1 2 3 4 5
x 5
add to favorites
×
Save as Personal and add changes to this tab that will be seen only by you. Learn more ›
×
You can save this tab as Personal to edit and correct it or add notes. All changes will be seen only by you. Learn more »
launch autoscroll
font size
0
reset
transpose
0
reset
display chords
guitar tuner
edit
Autoscroll
slow
fast
+/-
esc
set tempo
stop
Author
Difficulty
Strumming
There is no strumming pattern for this song yet. and get +5 IQ
Standard Tuning

 [Verse Chords]
     A#    G#    D#    C#
e|---6-----4-----6-----4---|
B|---6-----4-----8-----6---|
G|---7-----5-----8-----6---|
D|---8-----6-----8-----6---|
A|---8-----6-----6-----4---|
E|---6-----4-----6-----4---|


[Verse 1]

A#
Thomas said stay home, get away from me,
G#
Saying I was bad for you,
           D#                A#      D#      A#
He got his way, I'm gone for good.
A#
Making up stories, keeping it secret,
G#
Taking your word for truth,
                 D#                  A#
You were bad for me, So I'm gone for good.


[Chorus]

A#          G#
I did all I could,
             D#                               A#
So kiss this one more time cause I'm gone for good.
A#           G#
You, misunderstood,
             D#                             A#
So kiss this one last time and I'm gone for good.


[Verse 2]

A#
Thomas said sorry, coming home, crawling,
G#                                       D#
Didn't give a shit before, He stole from me,
                A#     D#     A#
So I'm gone for good.
A#
Getting back from this no second chances,
G#                                         D#
Another phone call ignored, You're bad for me,
                 A#
But I'm gone for good.


[Chorus]

A#          G#
I did all I could,
             D#                               A#      D#     A#
So kiss this one more time cause I'm gone for good.
A#             G#
You, misunderstood,
             D#                             A#
So kiss this one last time and I'm gone for good.
D#          A#
Can I get a little


[Bridge]

A#              C#              G#             D#
Ah ah ah ah-oh, Ah ah ah ah-oh, Ah ah ah ah-oh-oh, Kiss this!
A#              C#              G#             D#
Ah ah ah ah-oh, Ah ah ah ah-oh, Ah ah ah ah-oh-oh, Kiss this!


[Solo]

e|-----------------------------------------------------|-----------------------------------------------------|
B|-----------------------------------------------------|-----------------------------------------------------|
G|-----------------------------------------------------|-----------------------------------------------------|
D|--8-66--------------------------------------------8--|--8-66-----------------------------------------------|
A|-------888-666-------------6-8----------------6-8----|-------888-666-------------6-8-----------------------|
E|---------------9999--6--9-------9-6-4-6-----9--------|---------------9999--6--9-------9-6-4-6--------------|


[Chorus]

A#           G#
I, did all I could,
             D#
So kiss this one more time, One more time!
A#          G#
I did all I could,
             D#                               A#     D#     A#
So kiss this one more time cause I'm gone for good.
A#           G#
You, misunderstood,
             D#                             A#
So kiss this one last time and I'm gone for good.

Can I get a little


[Bridge]

A#              C#            G#              D#
Ah ah ah ah-oh, Ah ah ah a-oh, Ah ah ah ah-oh-oh, Kiss this!
A#              C#             G#             D#
Ah ah ah ah-oh, Ah ah ah a-oh, Ah ah ah ah-oh-oh, Kiss this!


[Solo]

e|-----------------------------------------------------|-----------------------------------------------------|
B|-----------------------------------------------------|-----------------------------------------------------|
G|-----------------------------------------------------|-----------------------------------------------------|
D|--8-66--------------------------------------------8--|--8-66-----------------------------------------------|
A|-------888-666-------------6-8----------------6-8----|-------888-666-------------6-8-----------------------|
E|---------------9999--6--9-------9-6-4-6-----9--------|---------------9999--6--9-------9-6-4-6--------------|

            
            
Suggest correction
Creating personal tab
Creating personal tab
You can edit any tab online and save it as your Personal.

You can edit, replace or remove any tab part or add personal notes – all changes will be seen only by you.

Personal tabs can be accessed anytime from any device, even offline.
Learn more »
comments
print report bad tab
guest
You may want to rate the tab now too:
select rating
Wanna post a correction for this tab? Suggest correction