Oops, an error
Loading. Please wait.

Popdeath bass

80 views 1 this week
no commentswrite comment
1 2 3 4 5
3 more votes to show rating
add to favorites
×
Save as Personal and add changes to this tab that will be seen only by you. Learn more ›
×
You can save this tab as Personal to edit and correct it or add notes. All changes will be seen only by you. Learn more »
launch autoscroll
font size
0
reset
guitar tuner
edit
Autoscroll
slow
fast
+/-
esc
set tempo
stop
-------------------------------------------------------------------------------
                             The Subways - Popdeath
-------------------------------------------------------------------------------
Tabbed by: piccolo

Tuning: Standard

Source: https://www.youtube.com/watch?v=zYGt3Bx0wkM

Note: Charlotte has been tuning her bass down half a step since 2008 and so she did in 
the source video.
I notated it in Standard Tuning, so don't get confused when you watch her play the song.

I'm not 100% sure about the fill in the Intro resp. the PreChorus.
If you got another approach leave a comment and I might edit the tab.
Thank you.
~ p

Intro
G|--------------------------------------------8108---------------------------|
D|------------------------------------------------86-------------------------|
A|------6--------6-----------------6--------10------8------------------------|
E|4-4-4---4-4-4----4-4-1--1-1-4-4-4---4-4-4----------------------------------|

Verse
G|---------------------------------------------------------------------------|
D|---------------------------------------------------------------------------|
A|------6--------6-----------------------------------------------------------|
E|4-4-4---4-4-4----4-4-1--1-1------------------------------------------------|

PreChorus
G|------------------------8108-----------------------------------------------|
D|---6------------------------86-----6---------------------------------------|
A|1----4--------6-------10------8-1----4-------6-----------------------------|
E|--------4-4-4----4-4-4------------------4-4-4--4-4-4--4-4-4-4--------------|

Chorus
G|---------------------------------------------------------------------------|
D|---------------------------------------------------------------------------|
A|----6~--1~--4-4-4-4--------------------------------------------------------|
E|1~-------------------------------------------------------------------------|

Bridge
G|---------------------------------------------------------------------------|
D|----6-8-6-3-1--------6-8-6-3-1---------------------------------------------|
A|--------------1----------------1----------------------6-6-6-6--------------|
E|4~---------------4~---------------4-4-4-4-4-4-4-4-1-1---------4-4-4-4------|

Guitar Solo / Ending
G|----------------------------|      |---------------------------------------|
D|----------------------------| x3 + |---------------------------------------|
A|------6--------6------------|      |------6--------------------------------|
E|4-4-4---4-4-4----4-4-1--1-1-|      |4-4-4---4-4-4--4-4-4-4-----------------|


Play in this order:

Intro x2
Verse x4
PreChorus
Chorus x2
Intro
Verse x4
PreChorus
Chorus x2
Bridge
Guitar Solo / Ending
Chorus x2
Guitar Solo / Ending

| ~  vibrato

===============================================================================

            
            
Suggest correction
Creating personal tab
Creating personal tab
You can edit any tab online and save it as your Personal.

You can edit, replace or remove any tab part or add personal notes – all changes will be seen only by you.

Personal tabs can be accessed anytime from any device, even offline.
Learn more »
Give kudos to tab author, rate the tab!
1 2 3 4 5
comments
print report bad tab
guest
Wanna post a correction for this tab? Suggest correction