Oops, an error
Loading. Please wait.

Apache Jump On It bass

8,307 views 15 this week
1 commentread comment
1 2 3 4 5
x 4
add to favorites
×
Save as Personal and add changes to this tab that will be seen only by you. Learn more ›
×
You can save this tab as Personal to edit and correct it or add notes. All changes will be seen only by you. Learn more »
launch autoscroll
font size
0
reset
guitar tuner
edit
Autoscroll
slow
fast
+/-
esc
set tempo
stop
Author
Difficulty
SuGar HiLL GanG

standard tuning

intro
[--------------------------------------]
[-----------7-6-7-7-8-9----------------]
[--------------------------------------]
[--------------------------------------]


 verse                                        
[-----------------------------------------]  
[-2-7----2----7----4----2----0-2----------]  
[-----------------------------------------]  x2
[-----------------------------------------]


[-2-7----2----7----4----2----0-2----------]
[-----------------------------------------]
[-----------------------------------------]
[-----------------------------------------]

[-----------------------------------------]  
[-2-7----2----7----4----2----0-2----------]  
[-----------------------------------------]  
[-----------------------------------------]

[-----------------]
[-0-2-3-5---------]
[-----------------]
[-----------------]

solos
[-2p0--5p2-7h9p7/5p0--2p0--5p2-7h9p7/5p0-]
[----------------------------------------]
[----------------------------------------]
[----------------------------------------]

[----------------------7p5-2-0-2----7h9p7/5p0-0-----7h9p7/5p0-0-2-----]
[-----------------------------------------------9-10------------------]
[---------------------------------------------------------------------]
[---------------------------------------------------------------------]

play that a few times


 verse                                        
[-----------------------------------------]  
[-2-7----2----7----4----2----0-2----------]  
[-----------------------------------------]  x2
[-----------------------------------------]


[-2-7----2----7----4----2----0-2----------]
[-----------------------------------------]
[-----------------------------------------]
[-----------------------------------------]

[-----------------------------------------]  
[-2-7----2----7----4----2----0-2----------]  
[-----------------------------------------]  
[-----------------------------------------]

[-----------------]
[-0-2-3-5---------]
[-----------------]
[-----------------]

solos
[-2p0--5p2-7h9p7/5p0--2p0--5p2-7h9p7/5p0-]
[----------------------------------------]
[----------------------------------------]
[----------------------------------------]

[----------------------7p5-2-0-2----7h9p7/5p0-0-----7h9p7/5p0-0-2-----]
[-----------------------------------------------9-10------------------]
[---------------------------------------------------------------------]
[---------------------------------------------------------------------]


then they play the intro

then the verse and solos the then do it without the intro then do it with 

the intro se tha action that keeps happening so just keep doing that

            
            
Suggest correction
Creating personal tab
Creating personal tab
You can edit any tab online and save it as your Personal.

You can edit, replace or remove any tab part or add personal notes – all changes will be seen only by you.

Personal tabs can be accessed anytime from any device, even offline.
Learn more »
comments
print report bad tab
1 comment total.
0 reply
ivanjoness 60 Jul 31, 2015 10:20 AM

the build up to the verse is right but i can't figure out the verse. what you have isn't it.

guest
You may want to rate the tab now too:
select rating
Wanna post a correction for this tab? Suggest correction