Oops, an error
Loading. Please wait.

Sos tab

version 2
version 2

Whole song

Interactive

505 views 1 this week
no commentswrite comment
1 2 3 4 5
3 more votes to show rating
add to favorites
×
Save as Personal and add changes to this tab that will be seen only by you. Learn more ›
×
You can save this tab as Personal to edit and correct it or add notes. All changes will be seen only by you. Learn more »
launch autoscroll
font size
0
reset
how to read this tab
guitar tuner
edit
Autoscroll
slow
fast
+/-
esc
set tempo
stop
Author
                           S.O.S                                       


                                                             Suicide Machines



E||------------------------|------------------------|----------|
B||------------------------|------------------------|----------|
G||-------5--------------7-|--7-----------5---------|------7-7-|
D||--7----5----5----7-7--7-|--7------7----5----5----|--7-7-7-7-|
A||--7----3----5----7-7--5-|--5------7----3----5----|--7-7-5-5-|
E||--5---------3----5-5----|---------5---------3----|--5-5-----|


                                                                    
  
|---5-----5-x-5-x-5-x-5-3-3-x-3-3-3-x-3-|--5-5-x-5-x-5-x-5-3-3-x-3-3-3-x-3-|
|---5-----5-x-5-x-5-x-5-5-5-x-5-3-3-x-3-|--5-5-x-5-x-5-x-5-5-5-x-5-3-3-x-3-|
|*--6-----6-x-6-x-6-x-6-5-5-x-5-4-4-x-4-|--6-6-x-6-x-6-x-6-5-5-x-5-4-4-x-4-|
|*--7-----7-x-7-x-7-x-7---------5-5-x-5-|--7-7-x-7-x-7-x-7---------5-5-x-5-|
|---------------------------------------|----------------------------------|
|---------------------------------------|----------------------------------|

--5-5-x-5-x-5-x-5-3-3-x-3-3-3-x-3-|----------------|
--5-5-x-5-x-5-x-5-5-5-x-5-3-3-x-3-|----------------|
--6-6-x-6-x-6-x-6-5-5-x-5-4-4-x-4-|--5-5-5---------|
--7-7-x-7-x-7-x-7---------5-5-x-5-|--5-5-5-5-5-5-7-|
----------------------------------|--3-3-3-5-5-5-7-|
----------------------------------|--------3-3-3-5-|

 
--5-5-x-5-x-5-x-5-3-3-x-3-3-3-x-3-|--5-5-x-5-x-5-x-5-3-3-x-3-3-3-x-3-|
--5-5-x-5-x-5-x-5-5-5-x-5-3-3-x-3-|--5-5-x-5-x-5-x-5-5-5-x-5-3-3-x-3-|
--6-6-x-6-x-6-x-6-5-5-x-5-4-4-x-4-|--6-6-x-6-x-6-x-6-5-5-x-5-4-4-x-4-|
--7-7-x-7-x-7-x-7---------5-5-x-5-|--7-7-x-7-x-7-x-7---------5-5-x-5-|
----------------------------------|----------------------------------|
----------------------------------|----------------------------------|

--5-5-x-5-x-5-x-5-3-3-x-3-3-3-x-3-|--5-5-x-5-x-5-x-5-3-3-x-3-3-3-x-3-|
--5-5-x-5-x-5-x-5-5-5-x-5-3-3-x-3-|--5-5-x-5-x-5-x-5-5-5-x-5-3-3-x-3-|
--6-6-x-6-x-6-x-6-5-5-x-5-4-4-x-4-|--6-6-x-6-x-6-x-6-5-5-x-5-4-4-x-4-|
--7-7-x-7-x-7-x-7---------5-5-x-5-|--7-7-x-7-x-7-x-7---------5-5-x-5-|
----------------------------------|----------------------------------|
----------------------------------|----------------------------------|


  Bridge                                                                   

--5------5-x-5-x-5-x-5-5-5-x-5-x-5-x-5-|--5-5-x-5-x-5-x-5-7-7-x-7-x-7-x-7-|
--7------7-x-7-x-7-x-7-5-5-x-5-x-5-x-5-|--7-7-x-7-x-7-x-7-9-9-x-9-x-9-x-9-|
--7------7-x-7-x-7-x-7-6-6-x-6-x-6-x-6-|--7-7-x-7-x-7-x-7-9-9-x-9-x-9-x-9-|
-----------------------7-7-x-7-x-7-x-7-|----------------------------------|
---------------------------------------|----------------------------------|
---------------------------------------|----------------------------------|


  Verse                                                                   

--5-----5-x-5-x-5-x-5-3-3-x-3-3-3-x-3-|--5-5-x-5-x-5-x-5-3-3-x-3-3-3-x-3-|
--5-----5-x-5-x-5-x-5-5-5-x-5-3-3-x-3-|--5-5-x-5-x-5-x-5-5-5-x-5-3-3-x-3-|
--6-----6-x-6-x-6-x-6-5-5-x-5-4-4-x-4-|--6-6-x-6-x-6-x-6-5-5-x-5-4-4-x-4-|
--7-----7-x-7-x-7-x-7---------5-5-x-5-|--7-7-x-7-x-7-x-7---------5-5-x-5-|
--------------------------------------|----------------------------------|
--------------------------------------|----------------------------------|


  Pre-chorus                                                                   
  
--5----------5-x-5-x-5-x-5-3-3-x-3-x-3-x-3-|--5-5-x-5-x-5-x-5-3-3-x-3-x-3-x-3-|
--7----------7-x-7-x-7-x-7-5-5-x-5-x-5-x-5-|--7-7-x-7-x-7-x-7-5-5-x-5-x-5-x-5-|
--7----------7-x-7-x-7-x-7-5-5-x-5-x-5-x-5-|--7-7-x-7-x-7-x-7-5-5-x-5-x-5-x-5-|
-------------------------------------------|----------------------------------|
-------------------------------------------|----------------------------------|
-------------------------------------------|----------------------------------|

  
--5-5-x-5-x-5-x-5-3-3-x-3-x-3-x-3-|--5-5-x-5-x-5-x-5---------------|
--7-7-x-7-x-7-x-7-5-5-x-5-x-5-x-5-|--7-7-x-7-x-7-x-7---------------|
--7-7-x-7-x-7-x-7-5-5-x-5-x-5-x-5-|--7-7-x-7-x-7-x-7-5-5-5---------|
----------------------------------|------------------5-5-5-5-5-5-7-|
----------------------------------|------------------3-3-3-5-5-5-7-|
----------------------------------|------------------------3-3-3-5-|


  Chorus                                                                   
 
--5------5-x-5-x-5-x-5-3-3-x-3-3-3-x-3-|--5-5-x-5-x-5-x-5-3-3-x-3-3-3-x-3-|
--5------5-x-5-x-5-x-5-5-5-x-5-3-3-x-3-|--5-5-x-5-x-5-x-5-5-5-x-5-3-3-x-3-|
--6------6-x-6-x-6-x-6-5-5-x-5-4-4-x-4-|--6-6-x-6-x-6-x-6-5-5-x-5-4-4-x-4-|
--7------7-x-7-x-7-x-7---------5-5-x-5-|--7-7-x-7-x-7-x-7---------5-5-x-5-|
---------------------------------------|----------------------------------|
---------------------------------------|----------------------------------|


   
--5-5-x-5-x-5-x-5-3-3-x-3-3-3-x-3-|--5-5-x-5-x-5-x-5-3-3-x-3-3-3-x-3--||
--5-5-x-5-x-5-x-5-5-5-x-5-3-3-x-3-|--5-5-x-5-x-5-x-5-5-5-x-5-3-3-x-3--||
--6-6-x-6-x-6-x-6-5-5-x-5-4-4-x-4-|--6-6-x-6-x-6-x-6-5-5-x-5-4-4-x-4-*||
--7-7-x-7-x-7-x-7---------5-5-x-5-|--7-7-x-7-x-7-x-7---------5-5-x-5-*||
----------------------------------|-----------------------------------||
----------------------------------|-----------------------------------||


   Verse                                  
                                        4x
---5-----5-x-5-x-5-x-5-3-3-x-3-3-3-x-3--||
---5-----5-x-5-x-5-x-5-5-5-x-5-3-3-x-3--||
*--6-----6-x-6-x-6-x-6-5-5-x-5-4-4-x-4-*||
*--7-----7-x-7-x-7-x-7---------5-5-x-5-*||
----------------------------------------||
----------------------------------------||


  Pre-chorus                                
 
--5----------5-x-5-x-5-x-5-3-3-x-3-x-3-x-3-|
--7----------7-x-7-x-7-x-7-5-5-x-5-x-5-x-5-|
--7----------7-x-7-x-7-x-7-5-5-x-5-x-5-x-5-|
-------------------------------------------|
-------------------------------------------|
-------------------------------------------|


  Chorus                                                                   

--5------5-x-5-x-5-x-5-3-3-x-3-x-3-x-3-|--5-5-x-5-x-5-x-5-3-3-x-3-x-3-x-3-|
--7------7-x-7-x-7-x-7-5-5-x-5-x-5-x-5-|--7-7-x-7-x-7-x-7-5-5-x-5-x-5-x-5-|
--7------7-x-7-x-7-x-7-5-5-x-5-x-5-x-5-|--7-7-x-7-x-7-x-7-5-5-x-5-x-5-x-5-|
---------------------------------------|----------------------------------|
---------------------------------------|----------------------------------|
---------------------------------------|----------------------------------|


                                                              4x
--5-5-x-5-x-5-x-5---------------||---x--5--x--5--x--3--x--3---||
--7-7-x-7-x-7-x-7---------------||---x--5--x--5--x--5--x--3---||
--7-7-x-7-x-7-x-7-5-5-5---------||*--x--6--x--6--x--5--x--4--*||
------------------5-5-5-5-5-5-7-||*--x--7--x--7--------x--5--*||
------------------3-3-3-5-5-5-7-||----------------------------||
------------------------3-3-3-5-||----------------------------||


  
-------------------------|-----------------------|-------------------------|
-------------------------|-----------------------|-------------------------|
-------------------------|--4--5--5--5--4--------|-------------------4--5--|
--7--5----------5--7--7--|-----------------7--5--|----------5--7--7--------|
-------------7-----------|-----------------------|-------7-----------------|
--------5----------------|-----------------------|--5----------------------|

                                                       4x
-----------------||---5-5-x-5-x-5-x-5-3-3-x-3-3-3-x-3--||
-----------------||---5-5-x-5-x-5-x-5-5-5-x-5-3-3-x-3--||
--5--5--4--------||*--6-6-x-6-x-6-x-6-5-5-x-5-4-4-x-4-*||
-----------7--5--||*--7-7-x-7-x-7-x-7---------5-5-x-5-*||
-----------------||------------------------------------||
-----------------||------------------------------------||


  Pre-chorus                                                                   
  
--5----------5-x-5-x-5-x-5-3-3-x-3-x-3-x-3-|--5-5-x-5-x-5-x-5-3-3-x-3-x-3-x-3-|
--7----------7-x-7-x-7-x-7-5-5-x-5-x-5-x-5-|--7-7-x-7-x-7-x-7-5-5-x-5-x-5-x-5-|
--7----------7-x-7-x-7-x-7-5-5-x-5-x-5-x-5-|--7-7-x-7-x-7-x-7-5-5-x-5-x-5-x-5-|
-------------------------------------------|----------------------------------|
-------------------------------------------|----------------------------------|
-------------------------------------------|----------------------------------|


  
--5-5-x-5-x-5-x-5-3-3-x-3-x-3-x-3-|--5-5-x-5-x-5-x-5---------------|
--7-7-x-7-x-7-x-7-5-5-x-5-x-5-x-5-|--7-7-x-7-x-7-x-7---------------|
--7-7-x-7-x-7-x-7-5-5-x-5-x-5-x-5-|--7-7-x-7-x-7-x-7-5-5-5---------|
----------------------------------|------------------5-5-5-5-5-5-7-|
----------------------------------|------------------3-3-3-5-5-5-7-|
----------------------------------|------------------------3-3-3-5-|


  Chorus                                                                   
  
--5------5-x-5-x-5-x-5-3-3-x-3-x-3-x-3-|--5-5-x-5-x-5-x-5-3-3-x-3-x-3-x-3-|
--7------7-x-7-x-7-x-7-5-5-x-5-x-5-x-5-|--7-7-x-7-x-7-x-7-5-5-x-5-x-5-x-5-|
--7------7-x-7-x-7-x-7-5-5-x-5-x-5-x-5-|--7-7-x-7-x-7-x-7-5-5-x-5-x-5-x-5-|
---------------------------------------|----------------------------------|
---------------------------------------|----------------------------------|
---------------------------------------|----------------------------------|

 
--5-5-x-5-x-5-x-5-3-3-x-3-x-3-x-3-|--5-5-x-5-x-5-x-5-3-3-x-3-x-3-x-3-|
--7-7-x-7-x-7-x-7-5-5-x-5-x-5-x-5-|--7-7-x-7-x-7-x-7-5-5-x-5-x-5-x-5-|
--7-7-x-7-x-7-x-7-5-5-x-5-x-5-x-5-|--7-7-x-7-x-7-x-7-5-5-x-5-x-5-x-5-|
----------------------------------|----------------------------------|
----------------------------------|----------------------------------|
----------------------------------|----------------------------------|


   
--5-5-x-5-x-5-x-5-3-3-x-3-x-3-x-3-|--5-5-x-5-x-5-x-5---------------||
--7-7-x-7-x-7-x-7-5-5-x-5-x-5-x-5-|--7-7-x-7-x-7-x-7---------------||
--7-7-x-7-x-7-x-7-5-5-x-5-x-5-x-5-|--7-7-x-7-x-7-x-7-5-5-5---------||
----------------------------------|------------------5-5-5-5-5-5-7-||
----------------------------------|------------------3-3-3-5-5-5-7-||
----------------------------------|------------------------3-3-3-5-||

            
            
Suggest correction
Creating personal tab
Creating personal tab
You can edit any tab online and save it as your Personal.

You can edit, replace or remove any tab part or add personal notes – all changes will be seen only by you.

Personal tabs can be accessed anytime from any device, even offline.
Learn more »
Give kudos to tab author, rate the tab!
1 2 3 4 5
comments
print report bad tab
guest
You may want to rate the tab now too:
select rating
Wanna post a correction for this tab? Suggest correction