Oops, an error
Loading. Please wait.

Onda Perfetta chords

by The Sun
142 views 6 this week
no commentswrite comment
1 2 3 4 5
3 more votes to show rating
add to favorites
×
Save as Personal and add changes to this tab that will be seen only by you. Learn more ›
×
You can save this tab as Personal to edit and correct it or add notes. All changes will be seen only by you. Learn more »
launch autoscroll
font size
0
reset
transpose
0
reset
display chords
guitar tuner
edit
Autoscroll
slow
fast
+/-
esc
set tempo
stop
About this tab version
Band name wrong. I fix it. Was this info helpful? Yes No
Strumming
There is no strumming pattern for this song yet. and get +5 IQ
[Intro]
E  Bm  F#
E|---------------------------------------------------------------------------------------|
G|----12--12-------------12--12--------------12--12-------------12----12-----------------|
B|-----------------9--9-----------------9--9--------------11--11----------------11---11--|
D|---------------------------------------------------------------------------------------|
A|---------------------------------------------------------------------------------------|
E|---------------------------------------------------------------------------------------|

E|---------------------------------------------------|
G|----11--11---------------11--11--------------------|
B|-----------------11--11-----------------11--11-----|
D|---------------------------------------------------|
A|---------------------------------------------------|
E|---------------------------------------------------|     (x2)

[Verse]
E             B                   F#
   Mi sento come se aspettassi qualcosa   Tu chiamala svolta
     E            B                         F#
Mi faccio mille viaggi ma li tengo nascosti bene   (che forse conviene)
            G#m              E                   B
Ho desideri un po' comuni e un po' folli
            G#m    E                   F#
si danno il cambio      tra virtù e vizi

[Chorus]
                               B
Ma questo è il mio viaggio un' onda perfetta
                   F#
dove tutto combacia anche quando non sembra
                     G#m                    E
dove ogni mattino è una pagina bianca
                         F#
di un nuovo destino di un nuovo cammino

[Verse]
E                      B                         F#
Accolgo più dubbi di un tempo punto in alto e li sfido Nel caso le prendo ma almeno vivo
E                       B                      F#
   Cammino più svelto e Voglio qualcosa che non vedo Ma Dio, come lo sento
          G#m           E              B
Ho tutto un mondo di speranze e di sogni
      G#m       E                F#
Sono illusioni solo se non ci credi

[Chorus]
                   B
E questo è il mio viaggio un' onda perfetta
             F#
dove tutto combacia anche quando non sembra
            G#m                    E
dove ogni mattino è una pagina bianca
              F#
di un nuovo destino di un nuovo cammino
                 B
Si questo il mio viaggio e adesso lo sento
           F#
e il senso lo trovo in ogni momento
                 G#m                    E
anche quando non voglio c'è sempre un motivo
          F#
mi fido e lo seguo con fede lo vivo

[Instrumental]
E B F# (x2)
E|-------------------------------------------------|
G|--0h12--12--12--12--12--12--12--12--12---12------|
B|-------------------------------------------------|
D|-------------------------------------------------|
A|-------------------------------------------------|
E|-------------------------------------------------|

E|-------------------------------------------------|
G|--12--12--12--12--12--12--12--12--12---12--------|
B|-------------------------------------------------|
D|-------------------------------------------------|
A|-------------------------------------------------|
E|-------------------------------------------------|

E|---------------------------------------14---14---|
G|------11--------14----11--11h12------------------|
B|-------------11----------------------------------|
D|-------------------------------------------------|
A|-------------------------------------------------|
E|-------------------------------------------------|

E|------------------11-----------------------------|
G|----12---14-----------14---12--------------------|
B|----------------------------------------13-------|
D|-------------------------------------------------|
A|-------------------------------------------------|
E|-------------------------------------------------|

E|------------------------------------------------------------------------------|
G|------12-------------------------------------12------------12---11------------|
B|-----------------13---11----------11---13-----------13------------------11----|
D|----------------------------13------------------------------------------------|
A|------------------------------------------------------------------------------|
E|------------------------------------------------------------------------------|

E|------------------------------------|
G|------------------------------------|
B|------------------------------------|
D|----11--9---8h9---11----------------|
A|-------------------------------9----|
E|------------------------------------|

[Bridge]
              G#m           E                B
Ho tutto un mondo di speranze e di sogni
            G#m       E                F#
Sono illusioni solo se non ci credi

[Outro]
                      B
Ma questo è il mio viaggio un' onda perfetta
                   F#
dove tutto combacia anche quando non sembra
              G#m                    E
dove ogni mattino è una pagina bianca
                 F#
di un nuovo destino di un nuovo cammino
                   B
Si questo il mio viaggio e adesso lo sento
        F#
e il senso lo trovo in ogni momento
                 G#m                    E
anche quando non voglio c'è sempre un motivo
                   F#
mi fido e lo seguo con Fede lo vivo



************************************

| h  Hammer-on

************************************

            
            
Suggest correction
Creating personal tab
Creating personal tab
You can edit any tab online and save it as your Personal.

You can edit, replace or remove any tab part or add personal notes – all changes will be seen only by you.

Personal tabs can be accessed anytime from any device, even offline.
Learn more »
Give kudos to tab author, rate the tab!
1 2 3 4 5
comments
print report bad tab
guest
You may want to rate the tab now too:
select rating
Wanna post a correction for this tab? Suggest correction