Oops, an error
Loading. Please wait.

Rain bass

67 views 1 this week
no commentswrite comment
1 2 3 4 5
3 more votes to show rating
add to favorites
×
Save as Personal and add changes to this tab that will be seen only by you. Learn more ›
×
You can save this tab as Personal to edit and correct it or add notes. All changes will be seen only by you. Learn more »
launch autoscroll
font size
0
reset
guitar tuner
edit
Autoscroll
slow
fast
+/-
esc
set tempo
stop
Author
Difficulty
Tabbed by: 6METAL6BASSIST6
E-mail: petergriffinav@gmail.com

Tuning: EADG

Re-tabbed.

0:05

G|----------------------------------------------------------------|
D|----------------------------------------------------------------|
A|------------2---3-------2-----------2---3---4---5-------5-------|
E|3-------5-------------------5---3-------------------------------|

G|----------------------------------------------------------------|
D|----------------------------------------5---------------7---5---|
A|--------5-----------5-------2---3-----------3---5---------------|
E|3---------------3-------5---------------------------------------|

G|----------------------------------------------------------------|
D|----------------------------------------5---------------7---5---|
A|----------------------------2---3-----------3---5---------------|
E|3-------------------3---5---------------------------------------|

G|--------------------------------|
D|----------------5---------------|
A|--------5---5-------5---2---3---|
E|3---3---------------------------|

0:21

G|----------------------------------------------------------------|
D|--------------------------------------------5-------------------|
A|5-----------5---------------5---3-----------------------5---3---|
E|----------------5---5---------------------------3---------------|

G|----------------------------------------------------------------|
D|----------------------------------------------------------------|
A|2-------------------------------3---------------------------5---|
E|----------------2---2---------------------------3---3-----------|

G|----------------------------------------------------------------|
D|----------------------------------------------------------------|
A|------------2---3-------2-----------2---3---4---5-------5-------|
E|3-------5-------------------5---3-------------------------------|

0:33

G|----------------------------------------------------------------|
D|----------------------------------------5---------------7---5---|
A|--------5-----------5-------2---3-----------3---5---------------|
E|3---------------3-------5---------------------------------------|

G|----------------------------------------------------------------|
D|----------------------------------------5---------------7---5---|
A|----------------------------2---3-----------3---5---------------|
E|3-------------------3---5---------------------------------------|

G|--------------------------------|
D|----------------5---------------|
A|--------5---5-------5---2---3---|
E|3---3---------------------------|

0:44

G|----------------------------------------------------------------|
D|--------------------------------------------5-------------------|
A|5-----------5-----------2---5---3-----------------------5---3---|
E|----------------5---5---------------------------3---------------|

G|----------------------------------------------------------------|
D|----------------------------------------------------------------|
A|2-------------------------------3---------------------------5---|
E|----------------2---2---------------------------3---3-----------|

G|----------------------------------------------------------------|
D|----------------------------------------------------------------|
A|------------2---3-------2-----------2---3---4---5-------5-------|
E|3-------5-------------------5---3-------------------------------|

0:59

G|----------------------------------------------------------------|
D|--------7-----7---------7---------------5-----5---------5-------|
A|5---------------5---5-------5---3---------------3---3-------3---|
E|----------------------------------------------------------------|

G|----------------------------------------------------------------|
D|----------------------------------------------------------------|
A|------------2---3-------2-----------2---3---4---5-------5-------|
E|3-------5-------------------5---3-------------------------------|

G|----------------------------------------------------------------|
D|--------7-----7-----7---7---------------5-----5---------5-------|
A|5---------------5-----------5---3---------------3---3-------3---|
E|----------------------------------------------------------------|

G|----------------------------------------------------------------|
D|----------------------------------------------------------------|
A|------------2---3-------2-----------2---3---4---5-------5-------|
E|3-------5-------------------5---3-------------------------------|

1:16

G|----------------------------------------------------------------|
D|----------------------------------------5---------------7---5---|
A|--------5-----------5-------2---3-----------3---5---------------|
E|3---------------3-------5---------------------------------------|

G|----------------------------------------------------------------|
D|----------------------------------------5---------------7---5---|
A|----------------------------2---3-----------3---5---------------|
E|3-------------------3---5---------------------------------------|

G|--------------------------------|
D|----------------5---------------|
A|--------5---5-------5---2---3---|
E|3---3---------------------------|

1:28

G|----------------------------------------------------------------|
D|--------------------------------------------5-------------------|
A|5-----------5-----------2---5---3-----------------------5---3---|
E|----------------5---5---------------------------3---------------|

G|----------------------------------------------------------------|
D|----------------------------------------------------------------|
A|2-------------------------------3---------------------------5---|
E|----------------2---2---------------------------3---3-----------|

G|----------------------------------------------------------------|
D|----------------------------------------------------------------|
A|------------2---3-------2-----------2---3---4---5-------5-------|
E|3-------5-------------------5---3-------------------------------|

1:41

G|----------------------------------------------------------------|
D|----------------------------------------5---------------7---5---|
A|------------5-------5-------2---3-----------3---5---------------|
E|3---------------3-------5---------------------------------------|

G|----------------------------------------------------------------|
D|----------------------------------------5---------------7---5---|
A|----------------------------2---3-----------3---5---------------|
E|3-------------------3---5---------------------------------------|

G|--------------------------------|
D|----------------5---------------|
A|--------5---5-------5---2---3---|
E|3---3---------------------------|

1:52

G|----------------------------------------------------------------|
D|--------------------------------------------5-------------------|.
A|5-----------5-----------2---5---3-----------------------5---3---|
E|----------------5---5---------------------------3---------------|

G|----------------------------------------------------------------|
D|----------------------------------------------------------------|
A|2-------------------------------3---------------------------5---|
E|----------------2---2---------------------------3---3-----------|

G|----------------------------------------------------------------|
D|----------------------------------------------------------------|
A|------------2---3-------2-----------2---3---4---5-------5-------|
E|3-------5-------------------5---3-------------------------------|

2:06

G|----------------------------------------------------------------|
D|--------7-----7---------7---------------5-----5---------5-------|
A|5---------------5---5-------5---3---------------3---3-------3---|
E|----------------------------------------------------------------|

G|----------------------------------------------------------------|
D|----------------------------------------------------------------|
A|------------2---3-------2-----------2---3---4---5-------5-------|
E|3-------5-------------------5---3-------------------------------|

G|----------------------------------------------------------------|
D|--------7-----7---------7---------------5-----5-----5-----------|
A|5---------------5---5-------5---3---------------3-------3-------|
E|----------------------------------------------------------------|

2:23

G|----------------------------------------------------------------|
D|----------------------------------------------------------------| x2
A|------------2---3-------2-------------------2---3-------2-------|
E|3-------5-------------------5---3-------5-------------------5---|

G|--------------------------------|
D|--------------------------------|
A|----2---3---4---5-------5-------|
E|3-------------------------------|

G|--------------------------------------------------------------|
D|--------------------------------------------------------------|
A|------------2---3-------2-------------2-----3-----4-------5---|
E|3-------5-------------------5---3-----------------------------|

            
            
Suggest correction
Creating personal tab
Creating personal tab
You can edit any tab online and save it as your Personal.

You can edit, replace or remove any tab part or add personal notes – all changes will be seen only by you.

Personal tabs can be accessed anytime from any device, even offline.
Learn more »
Give kudos to tab author, rate the tab!
1 2 3 4 5
comments
print report bad tab
guest
You may want to rate the tab now too:
select rating
Wanna post a correction for this tab? Suggest correction