Oops, an error
Loading. Please wait.

Over To You tab

22 views 1 this week
no commentswrite comment
1 2 3 4 5
3 more votes to show rating
add to favorites
×
Save as Personal and add changes to this tab that will be seen only by you. Learn more ›
×
You can save this tab as Personal to edit and correct it or add notes. All changes will be seen only by you. Learn more »
launch autoscroll
font size
0
reset
how to read this tab
guitar tuner
edit
Autoscroll
slow
fast
+/-
esc
set tempo
stop
About this tab version
Tab based off the original album track. Spent a good few hours figuring this one out and I think it's pretty close. I suggest listening to the song while reading the tabs for more exact timing and figuring out your own picking pattern. I watched the few videos you can find of this song being performed and there's no capo. The positioning is quite easy once you have your hands in the right spot. Was this info helpful? Yes No
Artist: The Superjesus
Song: Over To You
Part of the song: Whole song

[Intro/Main riff]
e|--------------|-------------------|-------------|-------------|
B|--------------|-------------------|-------------|-------------|
G|--------------|-------------------|-------------|-13--11-9----|
D|--------------|-------------------|-------------|-------------|
A|-------9------|-9/11--11\9--9-/11-|-------9-----|-11--9--7----|
E|-0--0--7----0-|-7/9---9-\7--7-/9--|-0--0--7---0-|-------------|


e|--------------|-------------------|-------------|-------------|
B|--------------|-------------------|-------------|-------------|
G|--------------|-------------------|-------------|-13--11-9----|
D|--------------|-------------------|-------------|-------------|
A|-------9------|-9/11--11\9--9-/11-|-------9-----|-11--9--7----|
E|-0--0--7----0-|-7/9---9-\7--7-/9--|-0--0--7---0-|-------------|

[Verse 1]
e|-------------|---------------|---------------|---------------|
B|-9--9--------|-x-7--7--------|-x-5--5--------|-x-5--5--4--4--|
G|-9--9--------|-x-7--7--------|-x-6--6--------|-x-5--5--4--4--|
D|-9--9--------|-x-9--9--------|-x-7--7--------|-x-7--7--4--4--|
A|-7--7--------|-x-5--5--------|-x-4--4--------|-x-3--3--6--6--|
E|-------------|---------------|---------------|---------------|
   -  .            -  .            -  .            -  .  -  .

e|-------------|---------------|---------------|---------------|
B|-x-9--9------|-x-7--7--------|-x-5--5--------|-x-2--2--4--4--|
G|-x-9--9------|-x-8--8--------|-x-6--6--------|-x-2--2--4--4--|
D|-x-9--9------|-x-9--9--------|-x-7--7--------|-x-2--2--4--4--|
A|-x-7--7------|-x-6--6--------|-x-4--4--------|-x-0--0--2--2--|
E|-------------|---------------|---------------|---------------|
   -  .            -  .            -  .            -  .  -  -

e|-------------|---------------|---------------|---------------|
B|-9--9--------|-7--7----------|-5--5----------|-5--5--4--4----|
G|-9--9--------|-7--7----------|-6--6----------|-5--5--4--4----|
D|-9--9--------|-9--9----------|-7--7----------|-7--7--4--4----|
A|-7--7--------|-5--5----------|-4--4----------|-3--3--6--6----|
E|-------------|---------------|---------------|---------------|
   -  -          -  -            -  -            -  .  -  -

e|-------------|---------------|---------------|---------------|
B|-9--9--------|-7--7----------|-5--5----------|---------------|
G|-9--9--------|-8--8----------|-6--6----------|---------------|
D|-9--9--------|-9--9----------|-7--7----------|---------------|
A|-7--7--------|-6--6----------|-4--4----------|-2br-0-4---0---|
E|-------------|---------------|---------------|---------------|
   -  -          -  -            -  -

[Pre-Chorus]
e|-------------|---------------|---------------|---------------|
B|-------------|---------------|---------------|---------------|
G|-2-----2-----|-2------2------|--------4~-----|--------4~-----|
D|-2-----2-----|-2------2------|----6----------|----6----------|
A|-0-----0-----|-0------0------|---------------|---------------|
E|-------------|---------------|-0----0--------|-0----0--------|
   -     -       -      -

e|-------------|---------------|---------------|---------------|
B|-------------|---------------|---------------|---------------|
G|-2-----2-----|-2------2------|/6--6----------|/9-------------|
D|-2-----2-----|-2------2------|/6--6----------|/9-------------|
A|-0-----0-----|-0------0------|/4--4----------|/7-------------|
E|-------------|---------------|---------------|---------------|
   -     -       -      -           -            -

[Chorus]
e|-------------|---------------|---------------|---------------|
B|-------------|---------------|---------------|---------------|
G|-------------|---------------|---------------|---------------|
D|-4-----4-----|-4------4------|-6------6------|-6------6------|
A|-4-----4-----|-4------4------|-6------6------|-6------6------|
E|-2-----2-----|-2------2------|-4------4------|-4------4------|
   -     -       -      -        -      -        -      -

e|-------------|---------------|---------------|---------------|
B|-2-----------|-2-------------|-1-------------|---------------|
G|-2-----------|-2-------------|-2-------------|-2--2----------|
D|-2-----------|-2-------------|-2-------------|-2--2----------|
A|-0-----------|-0-------------|-0-------------|-0--0----------|
E|-------------|---------------|---------------|---------------|
   -             -               -               .  .

[Post-Chorus]
e|------------------------|------------------------|---------------------|------------------------|
B|------------------------|------------------------|---------------------|------------------------|
G|-9--9--9--9--9--9--9--9-|-9--9--9--9--9--9--9--9-|-9--9--9--9----------|------------------------|
D|------------------------|------------------------|---------------------|------------------------|
A|-7--7--7--7--7--7--7--5-|-5--5--5--5--5--5--5--4-|-4--4--4--4--2--0--0-|-2--0--0--2--0--4b------|
E|------------------------|------------------------|---------------------|------------------------|

[Verse 2]
e|-------------|---------------|---------------|---------------|
B|-9--9--------|-x-7--7--------|-x-5--5--------|-x-5--5--4--4--|
G|-9--9--------|-x-7--7--------|-x-6--6--------|-x-5--5--4--4--|
D|-9--9--------|-x-9--9--------|-x-7--7--------|-x-7--7--4--4--|
A|-7--7--------|-x-5--5--------|-x-4--4--------|-x-3--3--6--6--|
E|-------------|---------------|---------------|---------------|
   -  .            -  .            -  .            -  .  -  .

e|-------------|---------------|---------------|---------------|
B|-x-9--9------|-x-7--7--------|-x-5--5--------|-x-2--2--4--4--|
G|-x-9--9------|-x-8--8--------|-x-6--6--------|-x-2--2--4--4--|
D|-x-9--9------|-x-9--9--------|-x-7--7--------|-x-2--2--4--4--|
A|-x-7--7------|-x-6--6--------|-x-4--4--------|-x-0--0--2--2--|
E|-------------|---------------|---------------|---------------|
     -  .          -  .            -  .            -  .  -  -

e|-------------|---------------|---------------|---------------|
B|-9--9--------|-7--7----------|-5--5----------|-5--5--4--4----|
G|-9--9--------|-7--7----------|-6--6----------|-5--5--4--4----|
D|-9--9--------|-9--9----------|-7--7----------|-7--7--4--4----|
A|-7--7--------|-5--5----------|-4--4----------|-3--3--6--6----|
E|-------------|---------------|---------------|---------------|
   -  -          -  -            -  -            -  .  -  -

e|-------------|---------------|---------------|---------------|
B|-9--9--------|-7--7----------|-5--5----------|---------------|
G|-9--9--------|-8--8----------|-6--6----------|---------------|
D|-9--9--------|-9--9----------|-7--7----------|---------------|
A|-7--7--------|-6--6----------|-4--4----------|-2br-0-4---0---|
E|-------------|---------------|---------------|---------------|
   -  -          -  -            -  -

[Pre-Chorus]
e|-------------|---------------|---------------|---------------|
B|-------------|---------------|---------------|---------------|
G|-2-----2-----|-2------2------|--------4~-----|--------4~-----|
D|-2-----2-----|-2------2------|----6----------|----6----------|
A|-0-----0-----|-0------0------|---------------|---------------|
E|-------------|---------------|-0----0--------|-0----0--------|
   -     -       -      -

e|-------------|---------------|---------------|---------------|
B|-------------|---------------|---------------|---------------|
G|-2-----2-----|-2------2------|/6--6----------|/9-------------|
D|-2-----2-----|-2------2------|/6--6----------|/9-------------|
A|-0-----0-----|-0------0------|/4--4----------|/7-------------|
E|-------------|---------------|---------------|---------------|
   -     -       -      -           -            -

[Chorus]
e|-------------|---------------|---------------|---------------|
B|-------------|---------------|---------------|---------------|
G|-------------|---------------|---------------|---------------|
D|-4-----4-----|-4------4------|-6------6------|-6------6------|
A|-4-----4-----|-4------4------|-6------6------|-6------6------|
E|-2-----2-----|-2------2------|-4------4------|-4------4------|
   -     -       -      -        -      -        -      -

e|-------------|---------------|---------------|---------------|
B|-2-----------|-2-------------|-1-------------|---------------|
G|-2-----------|-2-------------|-2-------------|-2--2----------|
D|-2-----------|-2-------------|-2-------------|-2--2----------|
A|-0-----------|-0-------------|-0-------------|-0--0----------|
E|-------------|---------------|---------------|---------------|
   -             -               -               .  .

[Main Riff]
e|--------------|-------------------|-------------|-------------|
B|--------------|-------------------|-------------|-------------|
G|--------------|-------------------|-------------|-13--11-9----|
D|--------------|-------------------|-------------|-------------|
A|-------9------|-9/11--11\9--9-/11-|-------9-----|-11--9--7----|
E|-0--0--7----0-|-7/9---9-\7--7-/9--|-0--0--7---0-|-------------|


e|--------------|-------------------|-------------|-------------|
B|--------------|-------------------|-------------|-------------|
G|--------------|-------------------|-------------|-13--11-9----|
D|--------------|-------------------|-------------|-------------|
A|-------9------|-9/11--11\9--9-/11-|-------9-----|-11--9--7----|
E|-0--0--7----0-|-7/9---9-\7--7-/9--|-0--0--7---0-|-------------|

[Bridge]
e|------------|------------|----------------|-------------|
B|------------|------------|----------------|-------------|
G|-9--9--9--9-|-9--9--9--9-|-13--13--13--13-|-11-11-11-11-|
D|------------|------------|----------------|-------------|
A|-7--7--7--7-|-7--7--7--7-|-11--11--11--11-|-9--9--9--9--|
E|------------|------------|----------------|-------------|

[Solo] (Chords)
e|----------|----------|----------|------------------|
B|----------|----------|----------|------------------|
G|----------|----------|----------|------------------|
D|-9---9--9-|-8---8--8-|-6---6--6-|------------------| x4
A|-7---7--7-|-6---6--6-|-4---4--4-|------------------|
E|----------|----------|----------|-2--0--2--0--4--0-|

[Solo] (arpeggio bit)
e|-12----------|---------------|-12------------|--------------------|
B|-------12----|-----12--------|---------12----|--------------------|
G|----9--------|-11------11----|-----11--------|-11--9--11--9--11br-|
D|-------------|---------------|---------------|--------------------| x4
A|-------------|---------------|---------------|--------------------|
E|-------------|---------------|---------------|--------------------|

[Solo] (Distortion bit)
e|-12----------|----------9----|-7-------------|---------------|
B|-15b---------|----------12b--|-10b-----------|---------------|
G|-------------|---------------|---------------|---------------|
D|-------------|---------------|---------------|---------------| x2
A|-------------|---------------|---------------|---------------|
E|-------------|---------------|---------------|---------------|

[Chorus]
e|-------------|---------------|---------------|---------------|
B|-------------|---------------|---------------|---------------|
G|-------------|---------------|---------------|---------------|
D|-4-----4-----|-4------4------|-6------6------|-6------6------|
A|-4-----4-----|-4------4------|-6------6------|-6------6------|
E|-2-----2-----|-2------2------|-4------4------|-4------4------|
   -     -       -      -        -      -        -      -

e|-------------|---------------|---------------|---------------|
B|-2-----------|-2-------------|-1-------------|---------------|
G|-2-----------|-2-------------|-2-------------|-2--2----------|
D|-2-----------|-2-------------|-2-------------|-2--2----------|
A|-0-----------|-0-------------|-0-------------|-0--0----------|
E|-------------|---------------|---------------|---------------|
   -             -               -               .  .

[Outro]
e|--------------|-------------------|-------------|-------------|
B|--------------|-------------------|-------------|-------------|
G|--------------|-------------------|-------------|-13--11-9----|
D|--------------|-------------------|-------------|-------------|
A|-------9------|-9/11--11\9--9-/11-|-------9-----|-11--9--7----|
E|-0--0--7----0-|-7/9---9-\7--7-/9--|-0--0--7---0-|-------------|


e|--------------|-------------------|-------------|-------------|
B|--------------|-------------------|-------------|-------------|
G|--------------|-------------------|-------------|-13--11-9----|
D|--------------|-------------------|-------------|-------------|
A|-------9------|-9/11--11\9--9-/11-|-------9-----|-11--9--7----|
E|-0--0--7----0-|-7/9---9-\7--7-/9--|-0--0--7---0-|-------------|



***********************************

| x   Dead note
| /   Slide-up
| \   Side-down
| ~   Vibrato
| -   Legato
| .   Staccato
| b   Bend
| br  Bend-realease

***********************************

            
            
Suggest correction
Creating personal tab
Creating personal tab
You can edit any tab online and save it as your Personal.

You can edit, replace or remove any tab part or add personal notes – all changes will be seen only by you.

Personal tabs can be accessed anytime from any device, even offline.
Learn more »
Give kudos to tab author, rate the tab!
1 2 3 4 5
comments
print report bad tab
guest
You may want to rate the tab now too:
select rating
Wanna post a correction for this tab? Suggest correction