Oops, an error
Loading. Please wait.

Stoned Love bass

206 views 6 this week
no commentswrite comment
1 2 3 4 5
3 more votes to show rating
add to favorites
×
Save as Personal and add changes to this tab that will be seen only by you. Learn more ›
×
You can save this tab as Personal to edit and correct it or add notes. All changes will be seen only by you. Learn more »
launch autoscroll
font size
0
reset
guitar tuner
edit
Autoscroll
slow
fast
+/-
esc
set tempo
stop
Author
Stoned Love
A 1970 release by The Supremes reached number 3 UK.
Bass performance Bob Babbitt. Tab by bass50611. 
Not 100% but very close to Bob’s original bassline on this
Motown Classic.  Comments bass254@btinternet.com 

Intro:
G|-------|---------------------------------------------------------------|
D|-VOCAL-|---------------------------------------------------------------|
A|-START-|-x-x-x-x-5-4-2-0--5-5-5-5-5-5-5-5---------------7-7-7-7-7-7----|
E|-------|----------------------------------7-7-7-7-7-7-7------------7-5-|

G|----------------|
D|----------------|
A|-5-5-5-5-5-5----|
E|------------7-5-|

Verse 1:                                           (Play This x3)
G|---------------------------------------------------------------|
D|---------------------------------------------------------------|
A|-5-5-5-5-5-5-5-5-----------------7-7-7-7-7-7----5-5-5-5-5-5----|
E|-----------------7-7-7-7-7-7-7-7------------7-5------------7-5-|

                                                               (Pause)
G|----------------------------------------------------------------|
D|----------------------------------------------------------------|
A|-5-5-5-5-5-5-5-5-----------------7-7-7-7-7-7----5-5-5-5-5-5-5-5-|
E|-----------------7-7-7-7-7-7-7-7------------7-5-----------------|

Chorus 1:                                          (Play This x2)
G|---------------------------------------------------------------|
D|---------------------------------------------------------------|
A|-5-5-5-5-5-5-5-4-----------------7-7-7-7-7-7----5-5-5-5-5-5----|
E|-----------------7-7-7-7-7-7-7-7------------7-5------------7-5-|

Verse 2:                                           (Play This x3)
G|---------------------------------------------------------------|
D|---------------------------------------------------------------|
A|-5-5-5-5-5-5-5-5-----------------7-7-7-7-7-7----5-5-5-5-5-5----|
E|-----------------7-7-7-7-7-7-7-7------------7-5------------7-5-|

                                                  (Break)
G|-------------------------------------------------------|
D|-------------------------------------------------------|
A|-5-5-5-5-5-5-5-5-----------------7-7-7-7-7-7----5------|
E|-----------------7-7-7-7-7-7-7-7------------7-5--------|

Chorus 2:
G|---------------------------------------------------------------|
D|---------------------------------------------------------------|
A|-5-5-5-5-5-5-5-4-----------------7-7-7-7-7-7----5-5-5-5-5-5----|
E|-----------------7-7-7-7-7-7-7-7------------7-5------------7-5-|

G|----------------------------------------------------------------|
D|----------------------------------------------------------------|
A|-5-5-5-5-5-5-5-4-----------------7-7-7-7-7-7----5-5-5-5-5-5-4-2-|
E|-----------------7-7-7-7-7-7-7-7------------7-5-----------------|

Middle 8
G|---------------------------------------------------------|
D|-4--4-4-------------------------------4--4-4-------------|
A|---------5--2--------7--7-7---7--7-7----------5--2-------|
E|---------------5--2---------------------------------5--2-|

G|----------------------------|
D|----------------------------|
A|------------------0-0-2-4-5-|
E|-0--0--0--0--0--0-----------|

Chorus 3:
G|---------------------------------------------------------------|
D|---------------------------------------------------------------|
A|-5-5-5-5-5-5-5-4-----------------7-7-7-7-7-7----5-5-5-5-5-5----|
E|-----------------7-7-7-7-7-7-7-7------------7-5------------7-5-|

                                                                (Break)
G|----------------------------------------------------------------|
D|----------------------------------------------------------------|
A|-5-5-5-5-5-5-5-4-----------------7-7-7-7-7-7----5-5-5-5-5-5-5-5-|
E|-----------------7-7-7-7-7-7-7-7------------7-5-----------------|

Chorus 4:
G|-------------------------------------------------|
D|-VOCALS, DRUMS ONLY FIRST HALF OF THIS CHORUS----|
A|-------------------------------------------------|
E|-------------------------------------------------|

G|------------------------------------------------------------------------|
D|------------------------------------------------------------------------|
A|-5-4-2-0-5-5-5-5-5----------------5-6-7-7-7-7-7-7-7-6---5-5-5-5-5-5-5-5-|
E|------------------55-6-7-7-7-7-7-7--------------------------------------|

Outro:
G|---------------------------------------------------------------|
D|---------------------------------------------------------------|
A|-5-5-5-5-5-5-5-4-----------------7-7-7-7-7-7----5-5-5-5-5-5----|
E|-----------------7-7-7-7-7-7-7-7------------7-5------------7-5-|

                                                        (Song Fades Out)
G|----------------------------------------------------------------|
D|----------------------------------------------------------------|
A|-5-5-5-5-5-5-5-4-----------------7-7-7-7-7-7----5-5-5-5-5-5-5-5-|
E|-----------------7-7-7-7-7-7-7-7------------7-5-----------------|

Lyrics

Now I wanna tell ya--of a great love--ohh
It will light up
It will surely light up--darkened worlds
If you just believe...

Stoned Love, Mmm..
Oh yeah
A love for each other will bring fighting to an end
Forgiving one another
Time after time doubt creeps in
But like the sun lights up the sky with a message from above
Oh yeah, I find no other greater symbol of love--

Yeah, don't ya hear the wind blowing
mmmmhmm
Stoned Love
Oh yeah, I tell ya I ain't got no other

Woo, woo, Mmmmh
Stoned Love
Aww yeah

Life is so short
Put the present time at hand
Aww yeah--and if you're young at heart
Rise up and take your stand
And to the man
On whose shoulder
The world must depend
I pray for peace and love--Amen

Oooh--can't ya feel it--mmm hmm
Stoned Love
I tell ya I ain't got no other
Ahh haa
Stoned Love
Aww yeah

If the war 'tween our nations passed--oh yeah
Will the love 'tween our brothers and sisters last?
On and on and on and on and....

Stoned Love
Aw yeah--
I tell ya I ain't got no other

Mmm hmm
Stoned Love

Can't ya, can't ya, can't ya, can't ya, can't ya feel it
Woo, woo, mmm hmm
Stoned Love
Aw yeah stoned, stoned, stoned, stoned

Woo, woo, mmm hmm
Stoned Love
Oh yeah, yeah, yeah, yeah, yeah

Woo, woo, ah ha
Stoned Love
Aw yeah, yeah, ah, ah, ah

Woo, woo
Mmm hmm
Stoned Love

            
            
Suggest correction
Creating personal tab
Creating personal tab
You can edit any tab online and save it as your Personal.

You can edit, replace or remove any tab part or add personal notes – all changes will be seen only by you.

Personal tabs can be accessed anytime from any device, even offline.
Learn more »
Give kudos to tab author, rate the tab!
1 2 3 4 5
comments
print report bad tab
guest
You may want to rate the tab now too:
select rating
Wanna post a correction for this tab? Suggest correction