Oops, an error
Loading. Please wait.

Pray For You chords

2,242 views 21 this week
2 commentsread comments
1 2 3 4 5
x 4
add to favorites
×
Save as Personal and add changes to this tab that will be seen only by you. Learn more ›
×
You can save this tab as Personal to edit and correct it or add notes. All changes will be seen only by you. Learn more »
launch autoscroll
font size
0
reset
transpose
0
reset
simplify chords
display chords
guitar tuner
edit
Autoscroll
slow
fast
+/-
esc
set tempo
stop
Author
Difficulty
Strumming
There is no strumming pattern for this song yet. and get +5 IQ
hey, 

I love this song and couldent find it here so i decided to make my first tab. 
i enjoyed making it, if you want me to make more i am happy to make them.
feel free to comment Davidlee94@live.nl

- ()you can play both chords 
- 's' slide 
- 'b' bend
- 'h' hammer on
no capo version  



intro:

A                                  Asus
-----------------------------------------------------------------------------|
--------2--------2---------2---------3---------3---------3---------3---------|
---2--------2---------2---------2---------2---------2---------2---------2----|
-----------------------------------------------------------------------------|
0----0----0----0----0----0----0----0----0----0----0----0----0----0----0------|
-----------------------------------------------------------------------------|

verse:
     F#m                         E                  D                     A
Well i have been where you've been my friend, i felt the rain fall sideways.
     F#m                   E                D           A
Hell on wheels in the fast lane down the crooked highway.
     F#m                  E                D                      A                      
And i've been though that perfect storm my heart was wrecked my soul was torn. 
    F#m                  E
and i know, i know, i know,
    D                     (strum)
and i know, i know, i know, 


chorus:
   A        D        E            A (F#m)
Sometimes you need more than wiskey,
   A        D        E         A 
Sometimes wishdom just won't do, 
   D                        E              A  
And i aint gonna judge you i'm just gonna love you,
   A        D        E      A
Tonight im gonne pray for you. 

mid play:

A
-----0------0------0--------------0------0------0-----------------------------------------------------|
2-s3---2-s3---2-s3---3-s2----2-s3---2-s3---2-s3---3s2-3s2---------------------------------------------|
2------2------2-----------2--2------2------2--------------2-------------------------------------------|
2------2------0--------------2------2------0----------------------------------------------------------|
0------0---------------------0------0-----------------------------------------------------------------|
------------------------------------------------------------------------------------------------------|

verse 2:
your moma's cry your daddy's tried your friend have all but left you
You had an angel in your arms but you let her go i bet ya 
i've tried my best to number her 
Sometimes you cant get peace on earth
and i know, i know, i know,
but i know, i know, i know,

chorus:
Sometimes you need more than wiskey
Sometimes wishdom just wont do 
well i aint gonna judge you 
im just gonna love you        
tonight im gonna pray for you    F#m

solo
--------12-h14----------------------------------------------------|
12-h14----------12--14~s10--10--12--10--12b--10--12--10-----------|
---------------------------------------------------------9--9-----|
---------------------------------------------------------------11-|
------------------------------------------------------------------|
------------------------------------------------------------------|

--------------------------------------------|
-----------------------------10--10--10--10-|
-9--9--9--9--11--11--11--11-----------------|
--------------------------------------------|
--------------------------------------------|
--------------------------------------------|


---------------------9--12--14--17--------------|
-12--12--12--12--10-----------------------------|
------------------------------------------------|
------------------------------------------------|
------------------------------------------------|
------------------------------------------------|


    F#m                 E
and i know, i know, i know
    D                A
somebody prayed for me
    F#m                 E
and i know, i know i know
    D               A
heavens is listening 
    F#m               E
an i know i know i know
    D                  E 
that you dont know my name
    F#m                E
and i know i know i know
    D
and i know i know i know

chorus: 
Sometimes you need more than wiskey
Sometimes wishdom just wont do 
well i aint gonna judge you 
im just gonna love you 
                            F#m
tonight im gonna pray for you
F#m           D      E        A
tonight im gonna pray for you 


outro:
im gonna pray
im gonna pray
im gonna pray, for you
pray for you 


enjoy
-david van der Lee

            
            
Suggest correction
Creating personal tab
Creating personal tab
You can edit any tab online and save it as your Personal.

You can edit, replace or remove any tab part or add personal notes – all changes will be seen only by you.

Personal tabs can be accessed anytime from any device, even offline.
Learn more »
comments
print report bad tab
2 comments total.
0 reply
daaff94 64 Oct 02, 2014 05:24 AM

(Nube) still had to be changed to number*:)

0 reply
Mike529 10 Oct 02, 2014 12:06 PM

Great Job! Great tabs!

guest
You may want to rate the tab now too:
select rating
Wanna post a correction for this tab? Suggest correction