Oops, an error
Loading. Please wait.

Baraels Blade bass

version 1
version 1

Whole song

Interactive

2,793 views 3 this week
no commentswrite comment
1 2 3 4 5
2 more votes to show rating
add to favorites
×
Save as Personal and add changes to this tab that will be seen only by you. Learn more ›
×
You can save this tab as Personal to edit and correct it or add notes. All changes will be seen only by you. Learn more »
launch autoscroll
font size
0
reset
guitar tuner
edit
Autoscroll
slow
fast
+/-
esc
set tempo
stop
The Sword - Barael's Blade Bass tab
Album: Age of Winters

Tabbed by Jochum van Weert (jochum (at) tank86.com)

Drop C tuning (tune down a whole step and then turn lowest string down another whole step)


A lot of these notes are triplets. Listen to the song for the feel.

0:00 - Intro:

 F|-----------------|-----------------------|
 C|-----------------|-----------------------|
 G|-5-3-0-3-0-------|---5-3-0-3-0-----------|
 C|-----------5-0---|-------------5-3~--0---|

 F|-----------------|-----------------------|
 C|-----------------|-----------------------|
 G|-5-3-0-3-0-------|---5-3-0-3-0---6~------|
 C|-----------5-0---|-------------5-----0---|

 F|-----------------|-----------------------|
 C|-----------------|-----------------------|
 G|-5-3-0-3-0-------|---5-3-0-3-0-----------|
 C|-----------5-0---|-------------5-3~--0---|

 F|-----------------|-----------------------|
 C|-----------------|-----------------------|
 G|-5-3-0-3-0-------|---5-3-0-3-0---6~------|
 C|-----------5-0---|-------------5---------|

 F|---------------------|---------------------|---------------------|-------------------------|
 C|---------------------|---------------------|---------------------|-------------------------|
 G|-3h5-5-3h5-5---------|-3h5-5-3h5-5---------|-3h5-5-3h5-5---------|-3h5-5-3h5-5-------------|
 C|-------------0---0---|-------------0---0---|-------------0---0---|-------------------------|


0:19 - Main riff version 1


 F|---------------------|---------------------|---------------------|-----------------5h7-----|
 C|---------------------|---------------------|---------------------|-------3h5-5--/7---------|
 G|-3h5-5-3h5-5---------|-3h5-5-3h5-5---------|-3h5-5-3h5-5---------|-3h5-5-------------------|
 C|-------------0---0---|-------------0---0---|-------------0---0---|-------------------------|

 F|---------------------|---------------------|---------------------|-------------------------|
 C|---------------------|---------------------|---------------------|-------------------------|
 G|-3h5-5-3h5-5---------|-3h5-5-3h5-5---------|-3h5-5-3h5-5---------|-3h5-5-5-3-0-------------|
 C|-------------0---0---|-------------0---0---|-------------0---0---|-------------5---3-0-----|


0:34 - "BEHOLD!"

 F|----------------------------------------------------------------------------|
 C|----------------------------------------------------------------------------|
 G|----------------------------------------------------------------------------|
 C|-0---0~---------------------------------------------------------------------|


0:39

 F|-----------------------------------------|
 C|-----------------------------------------|
 G|-6-5-5-6-5-5-6-5-5-6-5-5-----------------|
 C|-------------------------0---0---0---0---| 3x

 F|-------------------------|-----------------------------|
 C|-------------------------|-----------------------------|
 G|-6-5-5-6-5-5-6-5-5-6-5-5-|-6-5-3-5-3---3---------------|
 C|-------------------------|-----------6---6-5-6-5-3-0---|

0:54 repeat intro


1:14 Main riff version 2:

 F|---------------------|---------------------|---------------------|-------------------------|
 C|---------------------|---------------------|---------------------|-------------5---5-5-3---|
 G|-3h5-5-3h5-5---------|-3h5-5-3h5-5---------|-3h5-5-3h5-5---------|-3h5-5-3h5-3-----------5-|
 C|-------------0---0---|-------------0---0---|-------------0---0---|-------------------------|

 F|---------------------|---------------------|---------------------|-----------------5h7-----|
 C|---------------------|---------------------|---------------------|-------3h5-5--/7---------|
 G|-3h5-5-3h5-5---------|-3h5-5-3h5-5---------|-3h5-5-3h5-5---------|-3h5-5-------------------|
 C|-------------0---0---|-------------0---0---|-------------0---0---|-------------------------|

 F|---------------------|---------------------|---------------------|-------------------5h7-7-|
 C|---------------------|---------------------|---------------------|-------------3h5-5-------|
 G|-3h5-5-3h5-5---------|-3h5-5-3h5-5---------|-3h5-5-3h5-5---------|-3h5-5-3h5-5-------------|
 C|-------------0---0---|-------------0---0---|-------------0---0---|-------------------------|

 F|---------------------|---------------------|---------------------|-------------------------|
 C|---------------------|---------------------|---------------------|-------------------------|
 G|-3h5-5-3h5-5---------|-3h5-5-3h5-5---------|-3h5-5-3h5-5---------|-3h5-5-5-3-0-------------|
 C|-------------0---0---|-------------0---0---|-------------0---0---|-------------5---3-0-----|

1:43 - "BEHOLD"

1:49 - Bridge:

 F|-------------------------------------------------|-------------------------------------------|
 C|-------------------------------------------------|-------------------------------------------|
 G|-5-5-5-5-5-5-5-3-0-3-0---------------------------|-----------------------------------------3-|
 
4x


2:17

 F|-------------------------------------------------|-----------------------------|
 C|-------------------------------------------------|-----------------------------|
 G|-5---5-------5---5-------5---5-------5-3-3-5-3-3-|-5---5-------3---3-----------|
 C|-------0-0-0-------0-0-0-------0-0-0-------------|-------0-0-0-------0-0-0-5---|

--------------------|
--------------------|
--------------------|
5-0-0-0-6-5-3-5-3-0-|

 F|-------------------------------------|
 C|-------------------------------------|
 G|-------------------------5-3-3-5-3-3-|
 C|-0-----1-0-----1-0-----0-------------| 2x


2:32 - Ending:

 F|-----------------------------------------|
 C|-----------------------------------------|
 G|-6-5-5-6-5-5-6-5-5-6-5-5-----------------|
 C|-------------------------0---0---0---0---| 3x

 F|-------------------------------------------------|----------------------------------------|
 C|-------------------------------------------------|----------------------------------------|
 G|-6-5-5-6-5-5-6-5-5-6-5-5-6-5-3-5-3---3-----------|----------------------------------------|
 C|-----------------------------------6---6-5-6-5-3-|-0~~------------------------------------|

            
            
Suggest correction
Creating personal tab
Creating personal tab
You can edit any tab online and save it as your Personal.

You can edit, replace or remove any tab part or add personal notes – all changes will be seen only by you.

Personal tabs can be accessed anytime from any device, even offline.
Learn more »
Give kudos to tab author, rate the tab!
1 2 3 4 5
comments
print report bad tab
guest
Wanna post a correction for this tab? Suggest correction