Oops, an error
Loading. Please wait.

How Heavy This Axe tab

version 1
version 1

Whole song

Interactive

17,052 views 30 this week
1 commentread comment
1 2 3 4 5
x 5
add to favorites
×
Save as Personal and add changes to this tab that will be seen only by you. Learn more ›
×
You can save this tab as Personal to edit and correct it or add notes. All changes will be seen only by you. Learn more »
launch autoscroll
font size
0
reset
how to read this tab
guitar tuner
edit
Autoscroll
slow
fast
+/-
esc
set tempo
stop
Author
Difficulty
Rhythm
        H        E.  S   Q       W                   H        E.  S T T S S S  
C ||--------------------------|-------------------|---------------------------|
G ||--------------------------|-------------------|--8--------7---5-5-7-5-----|
D#||--7g9--------7-----7g9----|-------------------|-----------------------7-4-|
A#||-----------------9--------|-------------------|---------------------------|
F ||--------------------------|-------------------|---------------------------|
C ||--------------------------|--0----------------|---------------------------|


  H        Q     Q         H        E.  S   Q       W                   H        E.  S T T S S S  
----------------------|--------------------------|-------------------|---------------------------|
----------------------|--------------------------|-------------------|--8--------7---5-5-7-5-----|
----------------------|--7g9--------7-----7g9----|-------------------|-----------------------7-4-|
--7--------9----10----|-----------------9--------|-------------------|---------------------------|
----------------------|--------------------------|-------------------|---------------------------|
----------------------|--------------------------|--0----------------|---------------------------|


  H        Q    Q       S S S S S S S S S S S S S S S S    S S S S S S S S S S S S S S S S  
---------------------|----------------------------------|----------------------------------|
---------------------|----------------------------------|----------------------------------|
---------------------|----------------------------------|----------------------------------|
--7--------5----4----|----------------------------------|--5-5-5-5-5-5-5-5-7-7-7-7-9-9-9-9-|
---------------------|--7-7-7-7-7-7-7-7-7-7-7-7-7-7-7-7-|----------------------------------|
---------------------|----------------------------------|----------------------------------|


  S S S S S S S S S S S S S S S S    S S S S S S S S S S S S S S S S  
----------------------------------|----------------------------------|
----------------------------------|----------------------------------|
----------------------------------|----------------------------------|
--7-7-7-7-7-7-7-7-7-7-7-7-7-7-7-7-|--4-4-4-4-4-4-4-4-5---------------|
----------------------------------|----------------------------------|
----------------------------------|----------------------------------|


  S S S S S S S S S S S S  S   S S  S    S S S S S S S S S S S S S  S S S  
--------------------------------------|-----------------------------------|
--------------------------------------|-----------------------------------|
--------------------------------------|-----------------------------------|
--9-------9-------9-------12S-10-9----|--9-------9-------9----------------|
--7-------7-------7-------10S--8-7----|--7-------7-------7------------8-5-|
----0-0-0---0-0-0---0-0-0----------10-|----0-0-0---0-0-0---0-0-5-5h-7-----|


  S S S S S S S S S S S S S  S S  S    S S S S S S S  S  S S Q     E   
------------------------------------|---------------------------------|
------------------------------------|---------------------------------|
------------------------------------|---------------------------------|
--9-------9-------9-------7S-9-9S-7-|--9-------9-9-7S-9-10---7----10--|
--7-------7-------7-------5S-7-7S-5-|--7-------7-7-5S-7--8---5-----8--|
----0-0-0---0-0-0---0-0-0-----------|----0-0-0-------------0----------|


  S S S S S S S S S S S S  S   S S  S    S S S S S S S S S S S S S  S S S  
--------------------------------------|-----------------------------------|
--------------------------------------|-----------------------------------|
--------------------------------------|-----------------------------------|
--9-------9-------9-------12S-10-9----|--9-------9-------9----------------|
--7-------7-------7-------10S--8-7----|--7-------7-------7------------8-5-|
----0-0-0---0-0-0---0-0-0----------10-|----0-0-0---0-0-0---0-0-5-5h-7-----|


  S S S S S S S S S S S S S  S S  S    S S S S S S S  S  S S  Q    E   
------------------------------------|---------------------------------|
------------------------------------|---------------------------------|
------------------------------------|---------------------------------|
--9-------9-------9-------7S-9-9S-7-|--9-------9-9-7S-9-10---12----7--|
--7-------7-------7-------5S-7-7S-5-|--7-------7-7-5S-7--8---10----5--|
----0-0-0---0-0-0---0-0-0-----------|----0-0-0-------------0----------|


  S S S S S S S S S S S S  S   S S  S    S S S S S S S S S S S S S  S S S  
--------------------------------------|-----------------------------------|
--------------------------------------|-----------------------------------|
--------------------------------------|-----------------------------------|
--9-------9-------9-------12S-10-9----|--9-------9-------9----------------|
--7-------7-------7-------10S--8-7----|--7-------7-------7------------8-5-|
----0-0-0---0-0-0---0-0-0----------10-|----0-0-0---0-0-0---0-0-5-5h-7-----|


  S S S S S S S S S S S S S  S S  S    S S S S S S S  S  S S Q     E   
------------------------------------|---------------------------------|
------------------------------------|---------------------------------|
------------------------------------|---------------------------------|
--9-------9-------9-------7S-9-9S-7-|--9-------9-9-7S-9-10---7----10--|
--7-------7-------7-------5S-7-7S-5-|--7-------7-7-5S-7--8---5-----8--|
----0-0-0---0-0-0---0-0-0-----------|----0-0-0-------------0----------|


  E.  S S E  S  E.   S  S  E   S    S  S S S H.              S  S S S  E   Q     SS T  T S  S  S  
---------------------------------|------------------------|--------------------------------------|
---------------------------------|------------------------|--------------------------------------|
---------------------------------|------------------------|--------------------------------------|
--9---9-9-9--9-12---12-12-12--12-|--7S-9-----9------------|--7S-9-----11--12-----L---------------|
--7---7-7-7--7-10---10-10-10--10-|--5S-7-----7------------|--5S-7------9--10-----L---9-10-9------|
---------------------------------|---------0--------------|---------0--------------0--------12-10|


  S  S S S H.              S  S S S E  Q    S S S E.     S  S S S H.            
------------------------|-----------------------------|------------------------|
------------------------|-----------------------------|------------------------|
------------------------|-----------------------------|------------------------|
--7S-9-----9------------|--7S-9-----------------------|--7S-9-----9------------|
--5S-7-----7------------|--5S-7-----4--5--------------|--5S-7-----7------------|
---------0--------------|---------0-2--3----0-0-5-7---|---------0--------------|


  S  S S S  E   Q     S S T  T S  S  S    S  S S S H.              S  S S S E  Q    S S S E.   
---------------------------------------|------------------------|-----------------------------|
---------------------------------------|------------------------|-----------------------------|
---------------------------------------|------------------------|-----------------------------|
--7S-9-----11--12-----L----------------|--7S-9-----9------------|--7S-9-----------------------|
--5S-7------9--10-----L---9-10-9-------|--5S-7-----7------------|--5S-7-----4--5--------------|
---------0--------------0--------12-10-|---------0--------------|---------0-2--3----0-0-5-7---|


  S S S S S S S S S S S S S S S S    S S S S S S S S S S S S S S S S  
----------------------------------|----------------------------------|
----------------------------------|----------------------------------|
----------------------------------|----------------------------------|
----------------------------------|----------------------------------|
----------------------------------|----------------------------------|
--0-0-0-0-0-0-0-0-0-0-0-0-0-0-0-0-|--0-0-0-0-0-0-0-0-0-0-0-0-0-0-0-0-|


  S S S S S S S S S S S S S S S S    H        Q    Q         H        E.  S   Q     
----------------------------------|---------------------|--------------------------|
----------------------------------|---------------------|--------------------------|
----------------------------------|---------------------|--7g9--------7-----7g9----|
----------------------------------|-----------5----4----|-----------------9--------|
----------------------------------|---------------------|--------------------------|
--0-0-0-0-0-0-0-0-0-0-0-0-0-0-0-0-|---------------------|--------------------------|


  W                   H        E.  S T T S S S    H        Q    Q     
-------------------|---------------------------|---------------------|
-------------------|--8--------7---5-5-7-5-----|---------------------|
-------------------|-----------------------7-4-|---------------------|
-------------------|---------------------------|--7--------5----4----|
-------------------|---------------------------|---------------------|
--0----------------|---------------------------|---------------------|


  S S S S S S S S S S S S  S   S S  S    S S S S S S S S S S S S S  S S S  
--------------------------------------|-----------------------------------|
--------------------------------------|-----------------------------------|
--------------------------------------|-----------------------------------|
--9-------9-------9-------12S-10-9----|--9-------9-------9----------------|
--7-------7-------7-------10S--8-7----|--7-------7-------7------------8-5-|
----0-0-0---0-0-0---0-0-0----------10-|----0-0-0---0-0-0---0-0-5-5h-7-----|


  S S S S S S S S S S S S S  S S  S    S S S S S S S  S  S S  Q    E   
------------------------------------|---------------------------------|
------------------------------------|---------------------------------|
------------------------------------|---------------------------------|
--9-------9-------9-------7S-9-9S-7-|--9-------9-9-7S-9-10---12----7--|
--7-------7-------7-------5S-7-7S-5-|--7-------7-7-5S-7--8---10----5--|
----0-0-0---0-0-0---0-0-0-----------|----0-0-0-------------0----------|


  S S S S S S S S S S S S  S   S S  S    S S S S S S S S S S S S S  S S S  
--------------------------------------|-----------------------------------|
--------------------------------------|-----------------------------------|
--------------------------------------|-----------------------------------|
--9-------9-------9-------12S-10-9----|--9-------9-------9----------------|
--7-------7-------7-------10S--8-7----|--7-------7-------7------------8-5-|
----0-0-0---0-0-0---0-0-0----------10-|----0-0-0---0-0-0---0-0-5-5h-7-----|


  S S S S S S S S S S S S S  S S  S    E.  S S E  S  E.   S  S  E   S  
------------------------------------|---------------------------------|
------------------------------------|---------------------------------|
------------------------------------|---------------------------------|
--9-------9-------9-------7S-9-9S-7-|--9---9-9-9--9-12---12-12-12--12-|
--7-------7-------7-------5S-7-7S-5-|--7---7-7-7--7-10---10-10-10--10-|
----0-0-0---0-0-0---0-0-0-----------|---------------------------------|


   E.   S  S  E   S  E.   S  S  E   S    S S S S S S S S Q.     S S  
--------------------------------------|-----------------------------|
--------------------------------------|-----------------------------|
--------------------------------------|-----------------------------|
--14---14-14-14--14-10---10-10-10--10-|--------------4-5-4------4-5-|
--12---12-12-12--12--8----8--8--8---8-|-----------------------------|
--------------------------------------|-----------------------------|


  S S S S S S S S S S Q    S S    E  S S E  S  S  Q.     S S    E  S S E  S  S S  S Q    S S  
-------------------------------|-----------------------------|-------------------------------|
-------------------------------|-----------------------------|-------------------------------|
-------------------------------|------------6S-7S-6------6-7-|------------6S-7-6S-9-7----7-9-|
--------------4-5-4-7-5----5-7-|------------4S-5S-4------4-5-|------------4S-5-4S-7-5----5-7-|
-------------------------------|--7--7-7-7-------------------|--7--7-7-7---------------------|
-------------------------------|--5--5-5-5-------------------|--5--5-5-5---------------------|


   E   S  S  E  S  S Q.     S  S     E   S  S  E  S  S S  S Q.      
---------------------------------|---------------------------------|
---------------------------------|---------------------------------|
---------------------------------|---------------------------------|
----------------8-10-8------8-10-|----------------8-10-8-10-8------|
--10--10-10-10-------------------|--10--10-10-10-------------------|
---8---8--8--8-------------------|---8---8--8--8-------------------|


   E   S  S  E  S  S Q.     S  S     E   S  S  E  S  S S  S Q.        E  S S E  S S H         
---------------------------------|---------------------------------|-------------------------|
---------------------------------|---------------------------------|-------------------------|
---------------------------------|---------------------------------|-------------------------|
----------------8-10-8------8-10-|----------------8-10-8-10-8------|------------5-7-5--------|
--10--10-10-10-------------------|--10--10-10-10-------------------|--7--7-7-7---------------|
---8---8--8--8-------------------|---8---8--8--8-------------------|--5--5-5-5---------------|


  E  S S E   Q.     Q       E  S S E  S S Q.     S S     E  S S E  Q.      S  E.   
-------------------------|---------------------------|----------------------------|
-------------------------|---------------------------|----------------------------|
-------------------------|---------------------------|----------------------------|
-------------------------|------------5-7-5----------|--10------9--7------10-12---|
--7--7-7-9--10------5----|--7--7-7-7-------------5-7-|---8--8-8-7--5-------8-10---|
--5--5-5-7---8------3----|--5--5-5-5-----------------|----------------------------|


  S  S S S H.              S  S S S  E   Q     S S T  T S  S  S    S  S S S H.            
------------------------|---------------------------------------|------------------------|
------------------------|---------------------------------------|------------------------|
------------------------|---------------------------------------|------------------------|
--7S-9-----9------------|--7S-9-----11--12-----L----------------|--7S-9-----9------------|
--5S-7-----7------------|--5S-7------9--10-----L---9-10-9-------|--5S-7-----7------------|
---------0--------------|---------0--------------0--------12-10-|---------0--------------|


  S  S S S E  Q    S S S E.     S  S S S H.              S  S S S  E   Q     S S T  T S  S  S  
-----------------------------|------------------------|---------------------------------------|
-----------------------------|------------------------|---------------------------------------|
-----------------------------|------------------------|---------------------------------------|
--7S-9-----------------------|--7S-9-----9------------|--7S-9-----11--12-----L----------------|
--5S-7-----4--5--------------|--5S-7-----7------------|--5S-7------9--10-----L---9-10-9-------|
---------0-2--3----0-0-5-7---|---------0--------------|---------0--------------0--------12-10-|


  S  S S S H.              S  S S S E  Q    S S S E.     E  E  E  E  E  E  E  E    
------------------------|-----------------------------|--------------------------||
------------------------|-----------------------------|--------------------------||
------------------------|-----------------------------|--------------------------||
--7S-9-----9------------|--7S-9-----------------------|--------------------------||
--5S-7-----7------------|--5S-7-----4--5--------------|--2-----------------------||
---------0--------------|---------0-2--3----0-0-5-7---|--0-----------------------||




Duration Legend
---------------
W - whole
H - half
Q - quarter
E - 8th
S - 16th
T - 32nd
X - 64th
. - note dotted
|-n-|  - n-tuplets


Tablature Legend
----------------
L - tied note
x - dead note
g - grace note
(n) - ghost note
> - accentuded note
NH - natural harmonic
AH - artificial harmonic
TH - tapped harmonic
SH - semi harmonic
PH - pitch harmonic
h - hammer on
p - pull off
b - bend
br - bendRelease
pb - preBend
pbr - preBendRelease
brb - bendReleaseBend
\n/ - tremolo bar dip
\n - tremolo bar dive
-/n - tremolo bar Release up
/n\ - tremolo bar inverted dip
/n - tremolo bar return
-\n - tremolo bar Release down
S - shift slide
s - legato slide
/ -  slide into from below or out of upwards
\ -  slide into from above or out of downwards
~ - vibrato
W - wide vibrato
tr - trill
TP - tremolo picking
T - tapping
S - slap
P - pop
< - fade in
^ - brush up
v - brush down

            
            
Suggest correction
Creating personal tab
Creating personal tab
You can edit any tab online and save it as your Personal.

You can edit, replace or remove any tab part or add personal notes – all changes will be seen only by you.

Personal tabs can be accessed anytime from any device, even offline.
Learn more »
comments
print report bad tab
1 comment total.
0 reply
therev09 10 Nov 08, 2013 11:04 AM

Badass tab!!!

guest
You may want to rate the tab now too:
select rating
Wanna post a correction for this tab? Suggest correction