Oops, an error
Loading. Please wait.

Iron Swan bass

version 1
version 1

Whole song

Interactive

5,012 views 1 this week
2 commentsread comments
1 2 3 4 5
1 last vote to show rating
add to favorites
×
Save as Personal and add changes to this tab that will be seen only by you. Learn more ›
×
You can save this tab as Personal to edit and correct it or add notes. All changes will be seen only by you. Learn more »
launch autoscroll
font size
0
reset
guitar tuner
edit
Autoscroll
slow
fast
+/-
esc
set tempo
stop
Author
-------------------------------------------------------------------------------
			     IRON SWAN - THE SWORD
-------------------------------------------------------------------------------

Tabbed By : Draco Thatus
e-mail: draco.thatus@gmail.com

Tuning: C Tuning (C-F-Bb-Eb)

Intro A:
|------------------------------------------|
|------------------------------------------|
|------------------------------------------|
|0----------------------0------------------|

|-------------------------------------------------|
|-------------------------------------------------|
|-------------------------------------------------|
|0-0--------------------------0-------------------|

|---------------------------------------|
|---------------------------------------|
|0-------------------0------------------|
|---------------------------------------|

|---------------------------------------------|
|---------------------------------------------|
|0-0---------------------0--------------------|
|---------------------------------------------|

|------------------------------------------|
|------------------------------------------|
|------------------------------------------|
|0----------------------0------------------|

|--------------------------------------------------------|
|--------------------------------------------------------|
|--------------------------------------------------------|
|0-0---------------------------0-----------------------0-|

Intro B:

|---------------------------------------|
|---------------------------------------|
|5-7------5-7------5-7------7-5-7-8--7-4|
|---------------------------------------|

|--------------------------------------------------------|
|--------------------------------------------------------|
|5-7-----------5-7-----------5-7-----------7--8-7-10--8-7|
|---000-000-000---000-000-000---000-000-000--------------|

|---------------------------------------------------------|
|---------------------------------------------------------|
|5-7------------5-7------------5-7------------7-5-7-8--7-5|
|---000000000000---000000000000---000000000000------------|

|---------------------------------------------------------|
|---------------------------------------------------------|
|5-7------------5-7------------5-7------------7-8--7-5-4-5|
|---000000000000---000000000000---000000000000------------|

|--------------------------------------------------|
|--------------------------------------------------|
|--------------------------------------------------|
|6-5-555555555555-6-5-555555555555-6-5-555555555555|

|---------------------------|
|8888-7777-10101010-12121212|
|---------------------------|
|---------------------------|

|--------------------------------------------------|
|--------------------------------------------------|
|--------------------------------------------------|
|6-5-555555555555-6-5-555555555555-6-5-555555555555|

|-------------|
|-------------|
|-------------|
|0-3-2-0-5-0-6|

|---------------------------------------------------------|
|---------------------------------------------------------|
|5-7------------5-7------------5-7------------7-5-7-8--7-4|
|---000000000000---000000000000---000000000000------------|

|-----------------------------------------------------------|
|-----------------------------------------------------------|
|5-7------------5-7------------5-7------------7-8-7-11-10--8|
|---000000000000---000000000000---000000000000--------------|

|---------------|
|---------------| x 4
|--------7------|
|0---0-------000|

Verse Riff:

|---------------------------------|
|---------------------------------|
|---------------------------------|
|4-3-000-000-000-000-000-000-000-6|

|------------------------------|
|------------------------------|
|-------------------------8-5-7|
|000-000-000-000-000-000-------|

|-----------------------------|
|-----------------------------|
|-----------------------------|
|000-000-000-000-000-000-000-6|

|------------------------------|
|------------------------------|
|-------------------------8-5-7|
|000-000-000-000-000-000-------|

|-----------------------------|
|-----------------------------|
|-----------------------------|
|000-000-000-000-000-000-000-6|

|------------------------|
|------------------------|
|-------------5-5--8--5-7|
|000-000-000-------------|

|-----------------------------|
|-----------------------------|
|-----------------------------|
|000-000-000-000-000-000-000-6|

|-----------------------|
|-----------------------|
|-------------5-5--11-10|
|000-000-000------------|

Pre-chorus Riff A:

|--------------------------------------------|
|--------------------------------------------|
|777777777777777755555555---5----------------|
|-------------------------6---6-5--3-5-6-5--3|

|---------------------------------------------|
|---------------------------------------------|
|777777777777777755555555---5-----------------|
|-------------------------6---6-5--3-5-6-5--6~|

Pre-chorus Riff B:

|--------------------------------|
|--------------------------------| x 3
|----------------7--8-7----------|
|00000000-6-5-00-------0000-5-3-6|

|------------------------------|
|------------------------------|
|---------------7--8-7---------|
|00000000-6-5-00-------0000-4-3|

Chorus:

|---------------|
|---------------| x 3
|5-7------------|
|---000000000000|

|-------------|
|-------------|
|5-7----------|
|---0000-5-3-6|

|---------------|
|---------------| x 3
|5-7------------|
|---000000000000|

|-----------|
|-----------|
|5-7--------|
|---0000-4-3|

|---------------------------------|
|---------------------------------| x 2
|7--7--7--7--7-----7--7--7--7-----|
|-00-00-00-00-012/--00-00-00-004-3|

Solo (I couldn't figure this part out, I'm so lame)

Break

|-------------------------------------------------------|
|-------------------------------------------------------|
|-------------------------------------------------------|
|000-000-000-000-000-000-000-000-000-000-000-000-000-000|

|-------------------------------------|
|-------------------------------------| x3
|----------------------7--8-7--------8|
|000-000-000-000-6-5-00------000-5-3--|

|---------------------------|
|---------------------------|
|--------------7--8-7-------|
|000-000-6-5-00------000-4-3|

Verse 2

|-----------------------------|
|-----------------------------|
|-----------------------------|
|000-000-000-000-000-000-000-6|

|------------------------|
|------------------------|
|--7---7---7--5-5---8-5-7|
|00--00--00--------------|

|-----------------------------|
|-----------------------------|
|-----------------------------|
|000-000-000-000-000-000-000-6|

|-----------------------|
|-----------------------|
|--7---7---7--5-5--11-10|
|00--00--00-------------|

Pre Chorus Riff A

Pre Chorus Riff B

Chorus:

|----------------------------------------------------------|
|----------------------------------------------------------|
|5-7------------5-7------------7-5-7--8-7-4-5-7------------|
|---000000000000---000000000000----------------000000000000|

|--------------------------------------------------------|
|--------------------------------------------------------|
|5-7------------5-7------------7--8-7-10--8-7-5-7--------|
|---000000000000---000000000000------------------0000-4-3|


Outro:

|--------------|(x9)
|--------------|
|----7---------|
|-0-----0--000-|

|-------------------------------------------|
|-------------------------------------------|
|--12h14p12-10h12p10-9-10-7--10-9-10/12-10-7|
|0------------------------------------------|

|-------------------------------------|
|-------------------------------------|
|-7-5-4-5-7-5-5/10-9----10-9-10/12~-14|
|0-------------------0--------------12|



| /  slide up
| \  slide down
| h  hammer-on
| p  pull-off
| ~  vibrato
| +  harmonic
| x  Mute note
===============================================================================

            
            
Suggest correction
Creating personal tab
Creating personal tab
You can edit any tab online and save it as your Personal.

You can edit, replace or remove any tab part or add personal notes – all changes will be seen only by you.

Personal tabs can be accessed anytime from any device, even offline.
Learn more »
Give kudos to tab author, rate the tab!
1 2 3 4 5
comments
print report bad tab
2 comments total.
0 reply
MusicMan24 1,144 Apr 02, 2009 11:36 AM

Perfect tab, man

0 reply
Domin8tor 10 Dec 08, 2013 07:46 PM

Perfect Tab Except for that one part....

no seriously though great job.

guest
You may want to rate the tab now too:
select rating
Wanna post a correction for this tab? Suggest correction