Oops, an error
Loading. Please wait.

Iron Swan tab

version 2
version 2

Whole song

Interactive

20,245 views 21 this week
8 commentsread comments
1 2 3 4 5
x 10
add to favorites
×
Save as Personal and add changes to this tab that will be seen only by you. Learn more ›
×
You can save this tab as Personal to edit and correct it or add notes. All changes will be seen only by you. Learn more »
launch autoscroll
font size
0
reset
how to read this tab
guitar tuner
edit
Autoscroll
slow
fast
+/-
esc
set tempo
stop
Author
Difficulty
Band: The Sword
Song: Iron Swan
Album: Age Of Winters
Tabbed By: Cadien Lake James

C Standard Tuning C-F-A#-D#-G-C

Work out the timing on your own. I only gave basic structure.

|--4-5-4-754-2-2/4---4-5-4-2-4-4/5-4-|
|------------------------------------|
|--4-5-4-754-2-2/4---4-5-4-2-4-4/5-4-|
|------------------------------------|
|------------------------------------|
|0-----------------0-----------------|

|----4-5-4-754-542---4-5-4-2020-0--|
|------------------------------3---|
|----4-5-4-754-542---4-5-4-2020-0--|
|------------------------------3---|
|----------------------------------|
|0-0---------------0---------------|

|--------------------------------|
|--2-3-2-023-2-0---2-3-2-0-2-3-2-|
|--------------------------------|
|--2-3-2-023-2-0---2-3-2-0-2-3-2-|
|0---------------0---------------|
|--------------------------------|

|---------------------------------|
|----2-3-2-023-532---2-3-2-535757-|
|---------------------------------|
|----2-3-2-023-532---2-3-2-535757-|
|0-0---------------0--------------|
|---------------------------------|

|--4-5-4-754-2-2/4---4-5-4-2-4-4/5-4-|
|------------------------------------|
|--4-5-4-754-2-2/4---4-5-4-2-4-4/5-4-|
|------------------------------------|
|------------------------------------|
|0-----------------0-----------------|

|----4-5-4-7-5-4-5-4-2---4-5-4-545/7----|
|----------------------------------0----|
|----4-5-4-7-5-4-5-4-2---4-5-4-545/7----|
|---------------------------------------|
|---------------------------------------|
|0-0-------------------0--------------0-|

|------------------------------------|
|------------------------------------|
|------------------------------------|
|79------79------79------9-7-9-10-9-6|
|57------57------57------7-5-7-8--7-4|
|------------------------------------|

|---------------------------------------------------------|
|---------------------------------------------------------|
|---------------------------------------------------------|
|7-9------------7-9------------7-9------------109-1012-109|
|5-7------------5-7------------5-7------------8-7-8-10-8-7|
|---000000000000---000000000000---000000000000------------|

|---------------------------------------------------------|
|---------------------------------------------------------|
|---------------------------------------------------------|
|7-9------------7-9------------7-9------------9-7-9-10-9-6|
|5-7------------5-7------------5-7------------7-5-7-8--7-5|
|---000000000000---000000000000---000000000000------------|

|---------------------------------------------------------|
|---------------------------------------------------------|
|---------------------------------------------------------|
|7-9------------7-9------------7-9------------9-10-9-7-6-7|
|5-7------------5-7------------5-7------------7-8--7-5-4-5|
|---000000000000---000000000000---000000000000------------|


|---------------------------------------------|
|---------------------------------------------|
|---------------------------------------------|
|---------------------------------------------|
|8-7------------8-7------------8-7------------|
|6-55555555555556-55555555555556-5555555555555|

|------------------------|
|------------------------|
|------------------------|
|888877771010101012121212|
|------------------------| 
|666655558-8-8-8-10101010|

|---------------------------------------------|
|---------------------------------------------|
|---------------------------------------------|
|---------------------------------------------|
|8-7------------8-7------------8-7------------|
|6-55555555555556-55555555555556-5555555555555|

|-------------|
|-------------|
|-------------|
|-------------|
|2-5-4-2-7-2-8|
|0-3-2-0-5-0-6|

|---------------------------------------------------------|
|---------------------------------------------------------|
|---------------------------------------------------------|
|7-9------------7-9------------7-9------------9-7-9-10-9-6|
|5-7------------5-7------------5-7------------7-5-7-8--7-4|
|---000000000000---000000000000---000000000000------------|

|---------------------------------------------------------|
|---------------------------------------------------------|
|---------------------------------------------------------|
|7-9------------7-9------------7-9------------9-109-131210|
|5-7------------5-7------------5-7------------7-8-7-11108-|
|---000000000000---000000000000---000000000000------------|

___________________________________________________________
Rhythm Guitar
|---------------|
|---------------|
|---------------|
|2---9---2------| x 4
|2---7---2------|
|0---0---0---000|
pm           ...

Lead Guitar
|-----------------------------------------------|
|-----------------------------------------------|
|---14/16/14-12/14/12-11-/12----11/12/11-14/12/9|
|-----------------------------------------------|
|---12/14/12-10/12/10-9--/10----9-/10/9--12/10/7|
|0--0--------0--------0------0--0--------0-----0|

|-----------------------------------|
|-----------------------------------|
|---9/7/6-7-/9-12/11---12/11/9-14b13| 
|-----------------------------------|
|---7/5/4-5-/7-10/9----10/9-/7-12b13|
|0--0---------------0--0-------0----|
___________________________________________________________

|-----------------------------------|
|-----------------------------------|
|-----------------------------------|
|-----------------------------------|
|3-2-----------------------------8--|
|4-3-000-000-000-000-000-000-000-6--|

|---------------------------|
|---------------------------|
|---------------------------|
|--9---9---9---9---9---91079|
|--7---7---7---7---7---78-57|
|000-000-000-000-000-000--00|

|-------------------------------|
|-------------------------------|
|-------------------------------|
|-------------------------------|
|----------------------------8--|
|000-000-000-000-000-000-000-6--|

|---------------------------|
|---------------------------|
|---------------------------|
|--9---9---9---9---9---91079|
|--7---7---7---7---7---78-57|
|000-000-000-000-000-000--00|

|-------------------------------|
|-------------------------------|
|-------------------------------|
|-------------------------------|
|----------------------------8--|
|000-000-000-000-000-000-000-6--|

|---------------------------|
|---------------------------|
|---------------------------|
|--9---9---9---9---7-7--1079|
|--7---7---7---7---5-5--8-57|
|000-000-000-000------------|

|-------------------------------|
|-------------------------------|
|-------------------------------|
|-------------------------------|
|----------------------------8--|
|000-000-000-000-000-000-000-6--|

|----------------------------|
|----------------------------|
|----------------------------|
|--9---9---9---9---7-7-------|
|--7---7---7---7---5-5--11-10|
|000-000-000-000-------------|

___________________________________________________________
Rhythm Guitar
|------------------------------------|
|------------------------------------|
|------------------------------------|
|-------------------7----------------|
|7777777755555555-8-5-8-7--5-7-8-7--5|
|-----------------6---6-5--3-5-6-5--3|

|-------------------------------------|
|-------------------------------------|
|-------------------------------------|
|-------------------7-----------------|
|7777777755555555-8-5-8-7--5-7-8-7----|
|-----------------6---6-5--3-5-6-5--6v|

Lead Guitar
|------------------------------------------------|
|------------------------------------------------|
|------------------------------------------------|
|1414141412121212--------------------------------|
|----------------14141414121212121111111112121212|
|------------------------------------------------|

|-------------------|
|-------------------|
|-------------------|
|--7----------------|
|8-5-8-7--5-7-8-7--5|
|6---6-5--3-5-6-5--3|

|---------------------------------------------|
|----------------77778888---------------------|
|--------77779999-----------------------------|
|77779999-------------------7-----------------|
|-------------------------8-5-8-7--5-7-8-7----|
|-------------------------6---6-5--3-5-6-5--6v|
___________________________________________________________

|-------------------------------|
|-------------------------------|
|-------------------------------| x 3
|---------------9-109-----------|
|--------8-7----7-8-7------7-5-8|
|000000006-5-00-------0000-5-3-6|

|-------------------------------|
|-------------------------------|
|-------------------------------|
|---------------9-109-----------|
|--------8-7----7-8-7------3-2--|
|000000006-5-00-------0000-4-3--|

|---------------|
|---------------|
|---------------| x 4
|7-9------------|
|5-7------------|
|---000000000000|

|-----|
|-----|
|-----|
|-----|
|7-5-8|
|5-3-6|

|---------------|
|---------------|
|---------------| x 4
|7-9------------|
|5-7------------|
|---000000000000|

|---|
|---|
|---|
|---|
|6-5|
|4-3|

|---------------------------------|
|---------------------------------|
|---------------------------------|
|---------------------------------|
|9--9--9--9--9----9--9--9--9------| x 2
|7--7--7--7--7----7--7--7--7--6-5-|
|0000000000000012/0000000000004-3-|

|----------------|
|----------------|
|----------------|
|79999999-1090--7|
|57777777-8-70875|
|00000000----=65-|

|---------------|
|---------------|
|---------------|
|79999999-97----|
|57777777-758758|
|00000000---6536|

|----------------|
|----------------|
|----------------|
|79999999-1090--7|
|57777777-8-70875|
|00000000----=65-|

|---------------|
|---------------|
|---------------|
|79999999-97----|
|57777777-758758|
|00000000---6536|
___________________________________________________________
Rhythm Guitar
|-----------------------------------|
|-----------------------------------|
|-----------------------------------| x 2
|-----------------------------------|
|-77-77-7-77-77-7-75-55-5-55-1010-10|
|0--0--0-0--0--0-0--0--0-0--0----0--|

|-----------------------------------------------------|
|-----------------------------------------------------|
|-----------------------------------------------------|
|-----------------------------------------------------|
|7---------------5-------10-------7---------------5b5½|   
|-----------------------------------------------------|

Lead Guitar
|--------------------------------------------------------|
|------------------------------------------15131215131215|
|----121412--121412--12141211-------12---12--------------|
|1214------14------14--------12-1214---14----------------|
|--------------------------------------------------------|
|--------------------------------------------------------|

|12-15p12--12--------------------------------------------|
|--------15--1512~-------15--12~-1215p12---15------------|
|------------------121412--14-----------14b15-12-----1214|
|------------------------------------------------1214----|
|--------------------------------------------------------|
|--------------------------------------------------------|
(This stuff is kinda random cuz theres 2 soling guitars and its hard to hear)
|-----20p17-----20p17-----20p17-----20p17-----20p17-----|
|1215------20p17-----20p17-----20p17-----20p17-----20p17|
|-------------------------------------------------------|
|-------------------------------------------------------|
|-------------------------------------------------------|
|-------------------------------------------------------|

|20p17-----20p17-----20p17-----15p12-----15p12-----|
|-----20p17-----20p17-----20p17-----15p12-----15p12|
|--------------------------------------------------|
|--------------------------------------------------|
|--------------------------------------------------|
|--------------------------------------------------|

|15p12-----15p12----------------------------|
|-----15p12-----15p12-----------------------|
|------------------------121414b15r141214b15|
|--------------------1214-------------------|
|-------------------------------------------|
|-------------------------------------------|

|--121512----------------------------------------------|
|15------15121512---------------------------------15b17|
|----------------14121412-----------12-14b15r14--------|
|------------------------12-12h14-14-----------12------|
|------------------------------------------------------|
|------------------------------------------------------|
___________________________________________________________

|--------------------------------------------------------|
|--------------------------------------------------------|
|--------------------------------------------------------|
|--------------------------------------------------------|
|--------------------------------------------------------|
|000-000-000-000-000-000-000-000-000-000-000-000-000-000-|

|---------------------------------|
|---------------------------------|
|---------------------9109--------|
|----------------87---78-7---7-5-8|
|000-000-000-000-65-00----0005-3-6|

|-------------------------|
|-------------------------|
|-------------9109--------|
|--------87---78-7---7-5-8|
|000-000-65-00----0005-3-6|

|-------------------------|
|-------------------------|
|-------------9109--------|
|--------87---78-7---7-5-8|
|000-000-65-00----0005-3-6|

|--------------------|
|--------------------|
|-------------9109---|
|--------87---78-7---|
|000-000-65-00----000|

|-----------------------------------|
|-----------------------------------|
|-----------------------------------|
|-----------------------------------|
|3-2-----------------------------8--|
|4-3-000-000-000-000-000-000-000-6--|

|---------------------------|
|---------------------------|
|---------------------------|
|--9---9---9---9---7-7--1079|
|--7---7---7---7---5-5--8-57|
|000-000-000-000------------|

|-------------------------------|
|-------------------------------|
|-------------------------------|
|-------------------------------|
|----------------------------8--|
|000-000-000-000-000-000-000-6--|

|----------------------------|
|----------------------------|
|----------------------------|
|--9---9---9---9---7-7-------|
|--7---7---7---7---5-5--11-10|
|000-000-000-000-------------|

___________________________________________________________
Rhythm Guitar
|------------------------------------|
|------------------------------------|
|------------------------------------|
|-------------------7----------------|
|7777777755555555-8-5-8-7--5-7-8-7--5|
|-----------------6---6-5--3-5-6-5--3|

|-------------------------------------|
|-------------------------------------|
|-------------------------------------|
|-------------------7-----------------|
|7777777755555555-8-5-8-7--5-7-8-7----|
|-----------------6---6-5--3-5-6-5--6v|

Lead Guitar
|------------------------------------------------|
|------------------------------------------------|
|------------------------------------------------|
|1414141412121212--------------------------------|
|----------------14141414121212121111111112121212|
|------------------------------------------------|

|-------------------|
|-------------------|
|-------------------|
|--7----------------|
|8-5-8-7--5-7-8-7--5|
|6---6-5--3-5-6-5--3|

|---------------------------------------------|
|----------------77778888---------------------|
|--------77779999-----------------------------|
|77779999-------------------7-----------------|
|-------------------------8-5-8-7--5-7-8-7----|
|-------------------------6---6-5--3-5-6-5--6v|
___________________________________________________________

|-------------------------------|
|-------------------------------|
|-------------------------------| x 3
|---------------9-109-----------|
|--------8-7----7-8-7------7-5-8|
|000000006-5-00-------0000-5-3-6|

|-------------------------------|
|-------------------------------|
|-------------------------------|
|---------------9-109-----------|
|--------8-7----7-8-7------3-2--|
|000000006-5-00-------0000-4-3--|

|---------------------------------------------------------|
|---------------------------------------------------------|
|---------------------------------------------------------|
|7-9------------7-9------------7-9------------9-7-9-10-9-6|
|5-7------------5-7------------5-7------------7-5-7-8--7-4|
|---000000000000---000000000000---000000000000------------|

|---------------------------------------------------------|
|---------------------------------------------------------|
|---------------------------------------------------------|
|7-9------------7-9------------7-9------------9-109-131210|
|5-7------------5-7------------5-7------------7-8-7-11108-|
|---000000000000---000000000000---000000000000------------|

|------------------|
|------------------|
|------------------| 
|7-9---------------|
|5-7------------6-5|
|---0000000000004-3|

___________________________________________________________
Rhythm Guitar
|---------------|
|---------------|
|---------------|
|2---9---2------| x 4
|2---7---2------|
|0---0---0---000|
pm           ...

Lead Guitar
|-----------------------------------------------|
|-----------------------------------------------|
|---14/16/14-12/14/12-11-/12----11/12/11-14/12/9|
|-----------------------------------------------|
|---12/14/12-10/12/10-9--/10----9-/10/9--12/10/7|
|0--0--------0--------0------0--0--------0-----0|

|--------------------------------|
|--------------------------------|
|---9/7/6-7-/9-12/11---12/11/9-14| 
|--------------------------------|
|---7/5/4-5-/7-10/9----10/9-/7-12|
|0--0---------------0--0-------0-|
___________________________________________________________

|---------------|
|---------------|
|---------------|
|2---9---2------| x 4
|2---7---2------|
|0---0---0---000|
pm           ...

Bass
|------------------------------------------------------|
|------------------------------------------------------|
|121412-101210-9h10---9h10p9-10-9-7---7p5p0h5h7p5/10-9-|
|-------------------0---------------0------------------|

|---------|
|--5p4p2/7|
|0--------|
|---------|

Guitar
|------------------------------------------------------|
|-----------------------------------3------------------|
|------------------------------------------------------|
|------------------------------------------------------|
|------------------------------------------------------|
|------------------------------------------------------|

|-----------|
|-----------|
|2-------2h4|
|--------0h2|
|-----------|
|-----------|

            
            
Suggest correction
Creating personal tab
Creating personal tab
You can edit any tab online and save it as your Personal.

You can edit, replace or remove any tab part or add personal notes – all changes will be seen only by you.

Personal tabs can be accessed anytime from any device, even offline.
Learn more »
comments
print report bad tab
8 comments total. Showing first comments.
0 reply
joshouellette93 10 Jul 20, 2007 05:53 PM

this tab is pretty much perfect.
kudos

0 reply
The_Sword_ROCKS 82 Aug 02, 2007 08:52 AM

thanks a lot. i was so stoked i got it on the sword website.

0 reply
ginger_morton 20 Oct 10, 2007 04:18 PM

I got the intro down, and the rest of the tab looks great! Those triplets and the solo might give me some trouble but oh well.

Awesome tab brother, 5 stars.

guest
You may want to rate the tab now too:
select rating
Wanna post a correction for this tab? Suggest correction