Oops, an error
Loading. Please wait.

The Black River tab

version 1
version 1

Whole song

Interactive

10,052 views 6 this week
3 commentsread comments
1 2 3 4 5
x 10
add to favorites
×
Save as Personal and add changes to this tab that will be seen only by you. Learn more ›
×
You can save this tab as Personal to edit and correct it or add notes. All changes will be seen only by you. Learn more »
launch autoscroll
font size
0
reset
how to read this tab
guitar tuner
backing track
0:00
0:00
edit
Autoscroll
slow
fast
+/-
esc
set tempo
stop
      Tabbed this out from alot of requests and my own desire to play it. I dont have it
down yet, but this should hold you off for a while.It is riff by riff, so dont rely on
many times I tell you to repeat a riff.Keep in mind this is a rough draft, and may not
flawless, but you get the idea. Please send me any part of the lead that I dont have. 
and Rate. Peace

         Tuning- C Standard

 Intro
|---------------------------------------------------|
|---------------------------------------------------|
|-------------------------7-7h9p7-5----3-3h5-3-3----|
|----/5h7-7----/5h8-8-------------------------------|
|---------------------------------------------------|
|-----------0----------0----------------------------|

 For the next part, I only have the 2nd guitar part, I will welcome any lead part tabs,
I know is he uses a pitch shifter or octaver.This repeats until vocals come in, but I 
know how many times it is played.

|---------------------------------------------------|
|---------------------------------------------------|
|---------------------------------------------------|
|---------------------------------------------------|
|---------------------------------------------------|
|0-0-0-0-0-0-0-0-0-0-0-0-0-0-0-0-0-0-0-0-0-0-0-0-0-0|

 Next...

A-12-12-12\13-10-8-7-5-5\7-1
E-10-10-10\11--8-6-5-3-3\5-1

This last part is a rough guess. Its the last part of the riff above.
 It is repeated a couple times with the other riff
|---------------------------------------------------|
|---------------------------------------------------|
|---------------------------------------------------|
|----4/5--5-2---------------------------------------|
|----2/3--3-0---------------------------------------|
|---------------------------------------------------|

 Next...
|---------------------------------------------------|
|---------------------------------------------------|
|---------------------------------------------------|
|---------------------------------------------------|
|---------------------------------------------------|
|0000-3-3p0-0000-3-0000-3-0000-3-00000-5-5p3--------|
 Little Interlude power chords...(guess)
|---------------------------------------------------|
|---------------------------------------------------|
|---------------------------------------------------|
|---------------------------------------------------|
|-0--3--2--5--3--2--3-------------------------------|
|-0--3--2--5--3--2--3-------------------------------|

 Next...
|---------------------------------------------------|
|---------------------------------------------------|
|---------------------------------------------------|
|---------------------------------------------------|
|12-12--12-12-12--12-12-12--12-13-10----------------|
|12-12--12-12-12--12-12-12--12-13-10----------------|

 End part of riff. Add to last part.
|---------------------------------------------------|
|---------------------------------------------------|
|---------------------------------------------------|
|---------------------------------------------------|
|---------------------------------------------------|
|0-0-3--0-0-5---------------------------------------|

 For the part where vocals go..."take heart, do not fear..."
After whats written, play 3 note triplets instead of long patterns, timing stays same.
|----------------------------------------------------|
|----------------------------------------------------|
|----------------------------------------------------|
|----------------------------------------------------|
|-------------3-5--------------3-3-5------------3-3-5|
|000000000000-3-5-000000000000-3-3-500000000000-3-3-5|

            
            
Suggest correction
Creating personal tab
Creating personal tab
You can edit any tab online and save it as your Personal.

You can edit, replace or remove any tab part or add personal notes – all changes will be seen only by you.

Personal tabs can be accessed anytime from any device, even offline.
Learn more »
comments
print report bad tab
3 comments total.
+1 reply
mybandishv 41 Dec 10, 2009 08:27 AM

The Sword plays in C Standard !NOT! Drop C, otherwise as far as I can tell you did an excellent job

0 reply
80smetalfreke 735 Feb 08, 2010 02:43 PM

LMFAO
the guy above is right i know you put down c standard but those are drop c power chords you put in the tab

|-10---10--10h11--8-----6--5---3-----3---3h5-------1----|
|-10---10--10h11--8-----6--5---3-----3---3h5-------1----|


when it should be more like

A-12-12-12\13-10-8-7-5-5\7-1
E-10-10-10\11--8-6-5-3-3\5-1

+3 reply
Marcus 90 3,699 Apr 21, 2010 01:26 PM

can't anyone write a guitar pro tab for this song?

guest
You may want to rate the tab now too:
select rating
Wanna post a correction for this tab? Suggest correction