Oops, an error
Loading. Please wait.

Leading Me Now tab

version 3
version 3

Whole song

Interactive

1,233 views 33 this week
no commentswrite comment
1 2 3 4 5
2 more votes to show rating
add to favorites
×
Save as Personal and add changes to this tab that will be seen only by you. Learn more ›
×
You can save this tab as Personal to edit and correct it or add notes. All changes will be seen only by you. Learn more »
launch autoscroll
font size
0
reset
how to read this tab
guitar tuner
edit
Autoscroll
slow
fast
+/-
esc
set tempo
stop
-----------------------------------------------------------------------------
                  LEADING ME NOW  - The Tallest Man On Earth
-----------------------------------------------------------------------------

This is the right version of this song created using the other two tabs on the site 
(the one in open G who is wrong and the one in standard tuning who is correct)

Tuning DGDGBd
Capo 2th fret

Intro
Interlude 1-2
Verse
Interlude 1
Verse
Interlude 1*-2
Bridge
Verse
Interlude 1-2*
Bridge*
Interlude 1-2*

Rhythm:
Q  - quarter
E  - eighth note
E+ - dotted eighth
S  - sixteenth



Intro
  E SSE SSE SSE SS E SSE SSE SSE SS E SSE SSE SSE SS E SSE SSE S E E
d|----------------|----------------|----------------|----------------|
B|---3---3---3---3|---3---3---3---3|---3---3---3---3|---3---3----X---|
G|--0---0---0---0-|--0---0---0---0-|--0---0---0---0-|--0---0---0-X-0-|
D|----------------|----------------|----------------|------------X---|
G|0---0---0---0---|0---0---0---0---|0---0---0---0---|0---0---0---X---|
D|----------------|----------------|----------------|----------------|

Interlude
  E E E E E E E E  E E E E E E E E  E SSE E E SE+ E  E SSE E E E E E
d|----------------|----------------|----------------|----------------|
B|3---0---1p0---0-|--3-----1p0-----|---0----1--1--0-|---0----1p0-----|
G|--0---0-----2---|------0-----2p0-|--0---0---------|--0---0-----2p0-|
D|----4-------0---|----4-------0---|----0-----2-----|----0-------0---|
G|0-------0-----0-|0-------0-------|--------0--0--0-|0-------0-------|
D|----------------|----------------|2---------------|----------------|
  E E E E E E E E  E E E E E E E E  E SSE E E  SS E  E SSE E E E E E
d|----------------|----------------|----------------|----------------|
B|3---0---1p0---0-|--3-----1p0-----|---0----5-----0-|---0----1p0-----|
G|--0---0-----2---|------0-----2p0-|--0---0-----0---|--0---0-----2p0-|
D|----4-------0---|----4-------0---|----0------0----|----0-------0---|
G|0-------0-----0-|0-------0-------|--------5-------|0-------0-------|
D|----------------|----------------|2---------------|----------------|

Verse
  E SSE E E E E E  E SSE E E E E E  E SSE E E E E E  E SSE E E E E E
d|----------------|----------------|----------------|----------------|
B|---3------3-----|---0------0-----|---1------1-----|---0----1p0-----|
G|--0---0-------0-|--0---0-------0-|--0---0-------0-|--0---0-----2p0-|
D|----4-------0---|----0-------0---|----2-------0---|----0-----------|
G|0-------0-------|----------------|0-------0-------|0-------0-------|
D|----------------|2-------2-------|----------------|----------------|

d|----------------|----------------|----------------|----------------|
B|---3------3-----|---0------0-----|---1------1-----|---0------0-----|
G|--0---0-------0-|--0---0-------0-|--0---0-------0-|--0---0-------0-|
D|----4-------0---|----0-------0---|----2-------0---|----0-------0---|
G|0-------0-------|----------------|0-------0-------|0-------0-------|
D|----------------|2-------2-------|----------------|----------------|

d|----------------|----------------|----------------|----------------|
B|---0------0-----|---0------0-----|---1------1-----|---0------0-----|
G|--2---0-------2-|--2---0-------2-|--0---0-------0-|--2---0-------2-|
D|----0-------0---|----0-------0---|----2-------0---|----0-------0---|
G|----------------|----------------|0-------0-------|----------------|
D|0-------0-------|0-------0-------|----------------|0-------0-------|

Bridge
  E SSE E E E E E  E SSE E E E E E  E SSE E E E E E  E SSE E E E E E
d|----------------|----------------|----------------|----------------|
B|---0------0-----|---0------0-----|---0----1p0-----|---1------1-----|
G|--0---0-------0-|--0---0-------0-|--0---0-----2p0-|--0---0-------0-|
D|----2-------2---|----4-------4---|----0-------0---|----2-------0---|
G|5-------5-------|--------5-------|0-------0-------|0-------0-------|
D|----------------|0---------------|----------------|----------------|

d|----------------|----------------|----------------|----------------|
B|---1------1-----|---0------0-----|---0----1p0-----|---1------1-----|
G|--0---0-------0-|--2---0-------2-|--0---0-----2p0-|--0---0-------0-|
D|----2-------0---|----0-------0---|----0-------0---|----2-------0---|
G|0-------0-------|----------------|0-------0-------|0-------0-------|
D|----------------|0-------0-------|----------------|----------------|

d|----------------|----------------|----------------|----------------|
B|---0------0-----|---0------0-----|---0------0-----|---0------0-----|
G|--2---0-------2-|--0---0-------0-|--2---0-------2-|--0---0-------0-|
D|----0-------0---|----0-------0---|----0-------0---|----0-------0---|
G|----------------|----------------|----------------|----------------|
D|0-------0-------|0-------0-------|0-------0-------|0-------0-------|

Interlude 1*                       Interlude 2*
  Q  SS   E E E E                   E E E E E  E SS  E SSE E E  E SS
d|----------------|                |----------------|----------------|
B|3-------1p0---0-|                |--3-----0-------|---0----5--0----|
G|----0-------2---|                |------2----2--0-|--0---0-------0-|
D|---4--------0---|                |----0--------0--|----0--------0--|
G|0-------0-----0-|                |0-------0-------|--------5-------|
D|----------------|                |----------------|2---------------|


Bridge*
    D         D          U D U      E SSE E E E E E  E SSE E E E E E
d|--0---------0-----|----0-0-0-----|----------------|----------------|
B|--0---------0-----|----0-0-0-----|---0----1p0-----|---1------1-----|
G|--0---------2-----|----2-2-0-----|--0---0-----2p0-|--0---0-------0-|
D|--2---------0-----|----0-0-0-----|----0-------0---|----2-------0---|
G|--5---------2-----|----2-2-0-----|0-------0-------|0-------0-------|
D|--0---------0-----|----0-0-0-----|----------------|----------------|
                                      D                D
d|----------------|----------------|--0-------------|--0-------------|
B|---1------1-----|---0------0-----|--0-------------|--1-------------|
G|--0---0-------0-|--2---0-------2-|--0-------------|--0-------------|
D|----2-------0---|----0-------0---|--0-------------|--2-------------|
G|0-------0-------|----------------|--0-------------|--0-------------|
D|----------------|0-------0-------|--0-------------|--0-------------|

d|----------------|----------------|----------------|----------------|
B|---0------0-----|---0------0-----|---0------0-----|---0------0-----|
G|--2---0-------2-|--0---0-------0-|--2---0-------2-|--0---0-------0-|
D|----0-------0---|----0-------0---|----0-------0---|----0-------0---|
G|----------------|----------------|----------------|----------------|
D|0-------0-------|0-------0-------|0-------0-------|0-------0-------|



Lyrics

By the eyes of the very young
It’s a sudden good attack
On our weakness, my horse and I
Carry anger forth and back

But we’ll make it somehow
You have all what’s mine
And you are leading me now

On the gallop to mother’s field
We would lose our breath and fight
And you give me the look of thorns
We give liars every night

But I get you somehow
Leave the reins inside
You are leading me now

And every time we wonder
What we left back in your hearts
Could you see we’re dreaming
Though our minds just fall apart

But we will end up somehow
With a peaceful mind
And you are leading me now

To the site where I flew from you
When your pace just scared me blind
We will come back and joke of days
When I sold you to the unkind

We will end up somehow
With a peaceful mind
And you are leading me now


************************************

| /   slide up
| \   slide down
| h   hammer-on
| p   pull-off
| ~   vibrato
| +   harmonic
| x   Mute note
| b   Bend
| pb  Pre-bend
| br  Bend release
| pbr Pre-bend release
| brb Bend release bend

************************************

            
            
Suggest correction
Creating personal tab
Creating personal tab
You can edit any tab online and save it as your Personal.

You can edit, replace or remove any tab part or add personal notes – all changes will be seen only by you.

Personal tabs can be accessed anytime from any device, even offline.
Learn more »
Give kudos to tab author, rate the tab!
1 2 3 4 5
comments
print report bad tab
guest
You may want to rate the tab now too:
select rating
Wanna post a correction for this tab? Suggest correction