Oops, an error
Loading. Please wait.

The Blizzards Never Seen The Desert Sands tab

version 2
version 2

Whole song

Interactive

738 views 6 this week
no commentswrite comment
1 2 3 4 5
3 more votes to show rating
add to favorites
×
Save as Personal and add changes to this tab that will be seen only by you. Learn more ›
×
You can save this tab as Personal to edit and correct it or add notes. All changes will be seen only by you. Learn more »
launch autoscroll
font size
0
reset
how to read this tab
guitar tuner
edit
Autoscroll
slow
fast
+/-
esc
set tempo
stop
-------------------------------------------------------------------------------
    THE BLIZZARD'S NEVER SEEN THE DESERT SAND - The Tallest Man On Earth
-------------------------------------------------------------------------------

This song in original version is played with a banjo.
This is a really close version for guitar.

Tuning DGDGBd
Capo 9th fret

Intro x2
1st Verse
2nd Verse
3rd Verse
Interlude
4th Verse
5th Verse


Intro
d|------------------------------------|------------------------------------|
B|------------------------------------|------------------------------------|
G|-----0----0---0--2h0--------0---0---|-----0----0---0--4h0--------0---0---|
D|-----0------0--------0--4-----0-----|-----0------0--------0--2-----0-----|
G|--0-----0--------0---------0--------|--0-----0--------0---------0--------|
D|------------------------------------|------------------------------------|

Verse

There are five verses that are different just for the first bar

1st Verse                                  |
d|------------------------------------|    |
B|------------------------------------|    |
G|-----0----0-----2---------------0---|    |
D|-----0-------0------0--4-----0------|    |
G|--0-----0---------------------------|    |
D|----------------2---------2---------|    |
                                           |
2nd, 3rd, 4th Verse                        |
d|------------------------------------|    |
B|------------------------------------|    |
G|-----4----0------2----0---2-----0---|    |
D|-----2--------0-----0--------0------|    |
G|------------0----5------5-----------|    |
D|--2-----2---------------------------|    |
                                           |
5th Verse (strum)                          |
d|------------------------------------|    |
B|------------------------------------|    |
G|--------4-----------------0---------|    |
D|--------2-----------------0---------|    |
G|--------------------------5---------|    |
D|--------2---------------------------|    |


Every Verse
d|------------------------------------|------------------------------------|
B|------------------------------------|------------------------------------|
G|-----0----0---0--2h0--------0---0---|-----0----0---0--2h0--------0---0---|
D|-----0------0--------0--4-----0-----|-----0------0--------0--4-----0-----|
G|--0-----0--------0---------0--------|--0-----0--------0---------0--------|
D|------------------------------------|------------------------------------|

d|------------------------------------|
B|-----1------------1------1----------|
G|-----0----0-------0----------0------|
D|-----2------2-----2---2---------2---|
G|--5-----5------5-----------5--------|
D|------------------------------------|

d|------------------------------------|------------------------------------|
B|------------------------------------|------------------------------------|
G|-----0----0---0--2h0--------0---0---|-----0----0---0--2h0--------0---0---|
D|-----0------0--------0--4-----0-----|-----0------0--------0--4-----0-----|
G|--0-----0--------0---------0--------|--0-----0--------0---------0--------|
D|------------------------------------|------------------------------------|

d|------------------------------------| 
B|------------------------------------|    
G|-----0----0-----2-----2---2-----0---|     
D|-----0-------0-----0---------0------|  
G|--0-----0---------------------------|     
D|----------------2-------2-----------|        

d|------------------------------------|------------------------------------|
B|------------------------------------|------------------------------------|
G|-----0----0---0--2h0--------0---0---|-----0----0---0--4h0--------0---0---|
D|-----0------0--------0--4-----0-----|-----0------0--------0--2-----0-----|
G|--0-----0--------0---------0--------|--0-----0--------0---------0--------|
D|------------------------------------|------------------------------------|

Interlude
d|------------------------------------|------------------------------------|
B|------------------------------------|------------------------------------|
G|-----4----0------2----0---2-----0---|-----0----0---0--2h0--------0---0---|
D|-----2--------0-----0--------0------|-----0------0--------0--4-----0-----|
G|------------0----5------5-----------|--0-----0--------0---------0--------|
D|--2-----2---------------------------|------------------------------------|

d|------------------------------------|------------------------------------|
B|-----------------3--------3---------|------------------------------------|
G|-----4----0------2----0---------0---|-----0----0---0--2h0--------0---0---|
D|-----2--------0-----0--------0------|-----0------0--------0--4-----0-----|
G|------------0----5------5-----------|--0-----0--------0---------0--------|
D|--2-----2---------------------------|------------------------------------|

d|------------------------------------|------------------------------------|
B|------------------------------------|------------------------------------|
G|-----4----0------2----0---2-----0---|-----0----0---0--2h0--------0---0---|
D|-----2--------0-----0--------0------|-----0------0--------0--4-----0-----|
G|------------0----5------5-----------|--0-----0--------0---------0--------|
D|--2-----2---------------------------|------------------------------------|

d|----------------0-------------------|----------------0-------------------|
B|--------0---------------0-----------|--------0---------------0-----------|
G|----2-------2-------2-------2---2---|----2-------2-------2-------2---2---|
D|------0-------0-------0-------0-----|------0-------0-------0-------0-----|
G|--5-------5-------5-------5---------|--5-------5-------5-------5---------|
D|------------------------------------|------------------------------------|

Ending

The last 3 bars of the 5th Verse become (slowly)

d|------------------------------------|
B|------------------------------------|
G|-----0----0-----0-----------0-------|
D|-----0------0---------------0-------|
G|--0-----0-------5-----------0-------|
D|------------------------------------|



Lyrics

Oh, the blizzard's never seen the desert sands
I will set the tempo low in my commands
Come follow down the highway once trailed by my golden calf
Oh, the blizzard's never seen the desert sands

And I will drive it like a shepherd to the sun
It's the easiest decision I have done
Come follow down the highway once trailed by my golden calf
Oh, the blizzard's never seen the desert sands

And the bells up in the towers they will ring
And the frightened little choirs they will sing
They will tremble on their voices like it's from another shore
Oh, the frightened little choirs they will sing

I will sit up in the saddle of the storm
I will ride across the sea I stand before
Though the people on the beaches weigh just nothing bout themselves
I will sit up in the saddle of the storm

Oh, the blizzard's never seen the desert sands
And I never understood a written plan
I have set my house on fire 'cause I don't need it anymore
Oh, the blizzard's never seen the desert sands


************************************

| /   slide up
| \   slide down
| h   hammer-on
| p   pull-off
| ~   vibrato
| +   harmonic
| x   Mute note
| b   Bend
| pb  Pre-bend
| br  Bend release
| pbr Pre-bend release
| brb Bend release bend

************************************

            
            
Suggest correction
Creating personal tab
Creating personal tab
You can edit any tab online and save it as your Personal.

You can edit, replace or remove any tab part or add personal notes – all changes will be seen only by you.

Personal tabs can be accessed anytime from any device, even offline.
Learn more »
Give kudos to tab author, rate the tab!
1 2 3 4 5
comments
print report bad tab
guest
You may want to rate the tab now too:
select rating
Wanna post a correction for this tab? Suggest correction