Oops, an error
Loading. Please wait.

The Wild Hunt chords

version 2
version 2

Whole song

1,099 views 27 this week
no commentswrite comment
1 2 3 4 5
2 more votes to show rating
add to favorites
×
Save as Personal and add changes to this tab that will be seen only by you. Learn more ›
×
You can save this tab as Personal to edit and correct it or add notes. All changes will be seen only by you. Learn more »
launch autoscroll
font size
0
reset
transpose
0
reset
simplify chords
display chords
guitar tuner
edit
Autoscroll
slow
fast
+/-
esc
set tempo
stop
Author
Difficulty
intermediate
Strumming
There is no strumming pattern for this song yet. and get +5 IQ
The Tallest Man On Earth - The Wild Hunt
Capo 2
Can be played Standard tuning, but I find it to sound better EADGBD. Up to you

[Intro]
NOTE:
These are very informal chords and there are lots of inversions 
due to it originally being played in EBEBEB or CFCFCF... etc. So a chord may have the same name 
and all the same notes but they're in a different order to emphasize certain sounds.

The trick is to really pay attention to what your doing with your picking hand and physically
emphasize certain notes, muting others and letting others ring out.

[Chords]
G          320000
D6/9       200200 
Em         022000
Am         002210   
Bm(add11)  020400
Em         025400 
E7sus4     020200
Am(add9)   077500
Em7        055400
A6/9       044200
Gbm7       202000    
Em         022000

C          032010
Cmaj7      032000
Dsus2      200230

[Intro]                                                   
d|--0--0---0-0-0--0--0---0-0-0--0--0---0-0-0--0-0-0--0-0-0--0--0--0-0-0--0-0-0-0-0-0------|
B|--0--0---0-0-0--0--0---0-0-0--0--0---0-0-0--0-0-0--0-0-0--1--1--1-1-1--0-0-0-0-0-0------|
G|--0--0---0-0-0--2--2---2-2-2--0--0---0-0-0--0-0-0--0-0-0--2--2--2-2-2-s4-4-4-4-4-4------|
D|--0--0---0-0-0--0--0---0-0-0--2--2---2-2-2--2-2-2--2-2-2--2--2--2-2-2--0-0-0-5-5-5------|
A|--2--2---2-2-2--0--0---0-0-0--2--2---2-2-2--2-2-2--2-2-2--0--0--0-0-0--2-2-2-2-2-2------|
E|--3--3---3-3-3--2--2---2-2-2--0--0---0-0-0--0-0-0--0-0-0--0--0--0-0-0--0-0-0-0-0-0------|

d|-0--0---0-0-0--0-0-0--0-0-0--0-0-0-0-0-0-0-0-0-0-0-0-0-0-0-0--0-0--0-0-0--0-0-0--0-0-0---|
B|-0--0---0-0-0--0-0-0--0-0-0--0-0-0-0-0-0-0-0-0-0-0-0-0-0-0-0--0-0--0-0-0--0-0-0--0-0-0---|
G|-2--2---2-2-2--2-2-2--2-2-2--5-5-5-5-4-4-4-4-2-2-2-2-0-0-0-0--0-0--0-0-0--0-0-0--0-0-0---|
D|-0--0---0-0-0--0-0-0--0-0-0--7-7-7-7-5-5-5-5-4-4-4-4-2-2-0-0--2-2--2-2-2--2-2-2--2-2-2---|
A|-2--2---2-2-2--2-2-2--2-2-2--7-7-7-7-5-5-5-5-4-4-4-4-0-0-0-0--2-2--2-2-2--2-2-2--2-2-2---|
E|-0--0---0-0-0--0-0-0--0-0-0--0-0-0-0-0-0-0-0-0-0-0-0-0-0-0-0--0-0--0-0-0--0-0-0--0-0-0---|

d|--0--0--0-0-0--0-0-0-0-0-0--0--0---0-0-0--0-0-0--0-0-0---|
B|--1--1--1-1-1--0-0-0-0-0-0--0--0---0-0-0--0-0-0--0-0-0---|
G|--2--2--2-2-2-s4-4-4-4-4-4--2--2---2-2-2--2-2-2--2-2-2---|
D|--2--2--2-2-2--0-0-0-5-5-5--0--0---0-0-0--0-0-0--0-0-0---|
A|--0--0--0-0-0--2-2-2-2-2-2--2--2---2-2-2--2-2-2--2-2-2---|
E|--0--0--0-0-0--0-0-0-0-0-0--0--0---0-0-0--0-0-0--0-0-0---|
                                                There is a crow...

[Verse]
           G               D6/9              Em
There is a crow moon comin in where you keep looking out
          G               Cmaj7              Dsus2
It is the hollow month of march now sweeping in
            G                 Cmaj7           Em
Let's watch phenomenon's that rise out of the darkness now
           G               Dsus2     G
Within the light she is my storming heroine

        G                   D6/9           Em
And old machine's abandoned by the ancient racists and
            G            Em               Dsus2
I hear them humming down below and hollow earth
           G              Cmaj7           Em
Oh hell I guess I know no while I will go under too
             G             Dsus2               G
But just for now I let the spring and storm return

[Chorus]

          G            Cmaj7 G     
I left my heart to the wild hunt a-comin
  Em             Dsus2
I live until the call
      Am         G                  D6/9
And I plan to be forgotten when I'm gone
                           G
Yes I'll be leavin' in the fall

   Cmaj7     Dsus2
  (fall...   oh)


[Verse]

           G                D6/9              Cmaj7
And I will sleep out in the glade just by the giant tree
           G              Em              Dsus2
Just to be closer when my spirit's pulled away
         G              D6/9            Cmaj7
I left a nervous little boy out on the trail today
            G             Dsus2           G
He's just a mortal to the shoutin' cavalcade


[Chorus]
     
          G            Cmaj7 G     
I left my heart to the wild hunt a-comin
  Em             Dsus2
I live until the call
      Am         G                  D6/9
And I plan to be forgotten when I'm gone
                           G
Yes I'll be leavin' in the fall

   Cmaj7     Dsus2
  (fall...   oh)
*intro part*


[Verse]

           G               D6/9          Em     
Let's open up the windows have satan departin' now
             G              Cmaj7               Dsus2
And we'll be even when the blues fall down like hail
             G             D6/9         C
Hell I don't even care no more about Cadejo now
            G              Dsus2            G
If he's a white one or a black one on the trail


[Chorus]

          G            Cmaj7 G     
I left my heart to the wild hunt a-comin
  Em             Dsus2
I live until the call
      Am         G                  D6/9
And I plan to be forgotten when I'm gone
                           G
Yes I'll be leavin' in the fall

   Cmaj7     Dsus2
  (fall...   oh)

*intro part*

D6/9                     Em
yes I'll be leavin' in the fall

[Outro] 
Play the Em chord and just slide the shape up the neck

e|--0---0---0---0---0-------0---0---|
B|--0---0---0---0---0-------0---3---|
G|--0---0---0---0---0-------0---0---|
D|--2---4---5---7---12------0---0---|
A|--2---4---5---7---12------2---2---|
E|--0---0---0---0---0-------3---3---|

            
            
Suggest correction
Creating personal tab
Creating personal tab
You can edit any tab online and save it as your Personal.

You can edit, replace or remove any tab part or add personal notes – all changes will be seen only by you.

Personal tabs can be accessed anytime from any device, even offline.
Learn more »
Give kudos to tab author, rate the tab!
1 2 3 4 5
comments
print report bad tab
guest
You may want to rate the tab now too:
select rating
Wanna post a correction for this tab? Suggest correction