Oops, an error
Loading. Please wait.

These Days tab

version 2
version 2

Whole song

1,837 views 6 this week
4 commentsread comments
1 2 3 4 5
x 5
add to favorites
×
Save as Personal and add changes to this tab that will be seen only by you. Learn more ›
×
You can save this tab as Personal to edit and correct it or add notes. All changes will be seen only by you. Learn more »
launch autoscroll
font size
0
reset
how to read this tab
guitar tuner
edit
Autoscroll
slow
fast
+/-
esc
set tempo
stop
                                  ~~~~~~~~~~~~~~~~~~~~~~~~~~~~~~~~~~~~~~~~
                                                  These Days            
                                           The Tallest Man On Earth
                                         Lablogotheque Take Away Show         
                                  ~~~~~~~~~~~~~~~~~~~~~~~~~~~~~~~~~~~~~~~~
Tabbed by: Connor O.
Tuning: Standard
Capo: 5th
YT Link: https://www.youtube.com/watch?v=5Wvkt6R39pw

Comment or message any ideas or corrections. Please rate my tab. If you've got
problems with the tab, I'd encourage you to contact me with those problems so I
can fix the tab or provide advice for playing. Don't just give me a poor rating
and not give me any feedback. The idea is for us all to work together to create
a perfect finished product. This tab just represents the best I can do. It's 
definitely up for peer review.



Key:
where # represents a fret number

#h# - hammer
#p# - pull
/ \ - slides, up and down respectively.



Verse 2:


  1:24
   I       s   my    ram   blin                            I d   do
e|-------0---------------0-------------------------------0---------|
B|-1---------1-----1-------------------1-----1-----0h1-------------|
G|-0---0-------0---2---------0---------0h2-------2-----------0-----|
D|---------------------2-------2-------3-------3-------3-------0---|
A|-3-------3-------0-------0---------------------------------------|
E|---------------------------------1-------1-------1-------1-------|
   *   *   *   *   *   *   *   *   *   *   *   *   *   *   *   * 

  1:29
           too m   gam   blin  these   days
e|-------0---------------0-------------------------------0---------|
B|-1---------1-----1-------------------1-----1-----0h1-------------|
G|-0---0-------0---2---------0---------0h2-------2-----------0-----|
D|---------------------2-------2-------3-------3-------3-------0---|
A|-3-------3-------0-------0---------------------------------------|
E|---------------------------------1-------1-------1-------1-------|
   *   *   *   *   *   *   *   *   *   *   *   *   *   *   *   * 

  1:34
   These                           Days                        These
e|-------0---------------0-------------------------0---------------|
B|---0---------0---3-------------------------0-----------0---------|
G|-----------0---------------0---------0---------0-----------0-----|
D|-----2-------2-------2-------2-------2-------2-------2-------0---|
A|-----------------------------------------------------------------|
E|-0-------0-------0-------0-------0-------0-------0-------0-------|
   *   *   *   *   *   *   *   *   *   *   *   *   *   *   *   * 

  1:38
   D   I   s   t   t   a b       h a   t   chn ges c   a b     my
e|-----------------------0---------------0---------------0---------|
B|-----1-----1-----0h1-------------------------1---0---------------|
G|-----2-----2-----2---------2---------------2---------------0-----|
D|-----3-------3-------3-------3-------3-------3-------3-------0---|
A|-----------------------------------------------------------------|
E|-1-------1-------1-------1-------1-------1-------1-------1-------|
   *   *   *   *   *   *   *   *   *   *   *   *   *   *   *   * 

  1:43
       way                                                 and I
e|-----------0-----3-----0-------------------------------0---------|
B|-----0-------------------------------0h1---1-----0---------------|
G|-----0-------0-------0-----0---------------0-----0---------0-----|
D|-----------------------------0-------0h2-----2---0---0-------0---|
A|-3-------3-------3-------3---------------------------------------|
E|---------------------------------3-------3-------3-------3-------|
   *   *   *   *   *   *   *   *   *   *   *   *   *   *   *   * 

  1:48
   won     der if      I'd     see             a   no  ther
e|-------------------------------------------------------0---------|
B|-1-------0-------1---------0---------1-----1-----1---------------|
G|-0-----0-------0-------2-------------2-----2-----2---------2-----|
D|-----2-------2-------2---------------3-------3-------3-------3---|
A|-3-------2-------0-----------------------------------------------|
E|-------------------------3---0---1-------1-------1-------1-------|
   *   *   *   *   *   *   *   *   *   *   *   *   *   *   *   * 

  1:53                
                   high            way
e|-----------------0-------------------------------0---------------|
B|-----------1-------------------------------1-----------1---------|
G|-----2-------------------------------0---------0-----------0-----|
D|-----3-------3-------3-------3-------2-------2-------2-------2---|
A|---------------------------------3-------3-------3-------3-------|
E|-1-------1-------1-------1---------------------------------------|
   *   *   *   *   *   *   *   *   *   *   *   *   *   *   *   * 

  1:56

e|-------0---------------------------------------------------------|
B|----1--------1---------1-----------------------------------------|
G|--0--------0---------------0-------------------------------------|
D|-----2-------2-------2-------2-----------------------------------|
A|-3-------3-------3-------3---------------------------------------|
E|-----------------------------------------------------------------|
   *   *   *   *   *   *   *   *   


Verse 3:


   1:59
   I       had a   lo    ver                               I d   t
e|-------0---------------0-------------------------------0---------|
B|-1---------1-----1-------------------1-----1-----0h1-------------|
G|-0---0-------0---2---------0---------0h2-------2-----------0-----|
D|---------------------2-------2-------3-------3-------3-------0---|
A|-3-------3-------0-------0---------------------------------------|
E|---------------------------------1-------1-------1-------1-------|
   *   *   *   *   *   *   *   *   *   *   *   *   *   *   *   * 

  
           Id  r   a   no   ther these days
e|-------0---------------0-------------------------------0---------|
B|---1-------1-----1-------------------1-----1-----0h1-------------|
G|-----0-------0---2---------0---------0h2-------2-----------0-----|
D|---------------------2-------2-------3-------3-------3-------0---|
A|-3-------3-------0-------0---------------------------------------|
E|---------------------------------1-------1-------1-------1-------|
   *   *   *   *   *   *   *   *   *   *   *   *   *   *   *   * 

  2:08
   These                           Days                        and
e|-------0---------------0-------------------------0---------------|
B|---0-------------3-------------------------0-----------0---------|
G|-----------0---------------0---------0---------0-----------0-----|
D|-----2-------2-------2-------2-------2-------2-------2-------0---|
A|-----------------------------------------------------------------|
E|-0-------0-------0-------0-------0-------0-------0-------0-------|
   *   *   *   *   *   *   *   *   *   *   *   *   *   *   *   * 

  
   if  I   s   to  b a   fraid to  l   t l     t   I h  m    in  song
e|-----------------------0---------------0-------------------------|
B|-----1-----1-----0h1-------------------------1---0h1-------------|
G|-----2-----2-----2---------2---------------2-----2---------------|
D|-----3-------3-------3-------3-------3-------3-------------------|
A|-----------------------------------------------------------------|
E|-1-------1-------1-------1-------1-------1-------1---------------|
   *   *   *   *   *   *   *   *   *   *   *   *   *   *   *   *   *   *

  2:18
                                                           W   its
e|-----------0-----3-----0-------------------------------0---------|
B|-----0-------------------------------0h1---1-----0---------------|
G|-----0-------0-------0-----0---------------0-----0---------0-----|
D|-----------------------------0-------0h2-----2---0---0-------0---|
A|-3-------3-------3-------3---------------------------------------|
E|---------------------------------3-------3-------3-------3-------|
   *   *   *   *   *   *   *   *   *   *   *   *   *   *   *   * 

  
   just    t   Ive     been    losing
e|-----------------------------------------------------------------|
B|-1-------0-------1---------0---------1-----1-----1-----1---------|
G|-0-----0-------0-------2-------------2-----2-----2---------2-----|
D|-----2-------2-------2---------------3-------3-------3-------3---|
A|-3-------2-------0-----------------------------------------------|
E|-------------------------3---0---1-------1-------1-------1-------|
   *   *   *   *   *   *   *   *   *   *   *   *   *   *   *   * 

  2:27                
               For so              long
e|-------0-----------------------------------------0---------------|
B|----1--------1---1------1------------------1-----------1---------|
G|--2--------2---------------2---------0---------0-----------0-----|
D|-----3-------3-------3-------3-------2-------2-------2-------2---|
A|---------------------------------3-------3-------3-------3-------|
E|-1-------1-------1-------1---------------------------------------|
   *   *   *   *   *   *   *   *   *   *   *   *   *   *   *   * 


Breakdown:




e|-------0---------------0-------------------------------0---------|
B|-1---------1-----1-------------------1-----1-----0h1-------------|
G|-0---------------2---------2---------0h2-------2-----------0-----|
D|-----0-------0-------2-------2-------3-------3-------3-------0---|
A|-3-------3-------0-------0---------------------------------------|
E|---------------------------------1-------1-------1-------1-------|
   *   *   *   *   *   *   *   *   *   *   *   *   *   *   *   * 

  
           
e|-------0-----------------------------------------------0---------|
B|----1------1-1---1-------------------1-----1-----0h1-------------|
G|--0--------------2---------2---------0h2-------2-----------0-----|
D|-----2-------2-------2-------2-------3-------3-------3-------0---|
A|-3-------3-------0-------0---------------------------------------|
E|---------------------------------1-------1-------1-------1-------|
   *   *   *   *   *   *   *   *   *   *   *   *   *   *   *   * 

  
   
e|-------0---------3-----0-------------------------------0---------|
B|---0---------------------------------3-----------3---------------|
G|-----------0---------------0---------0-----0---0-0---------0-----|
D|-----2-------2-------2-------2-------2-------2-------2-------0---|
A|-----------------------------------------------------------------|
E|-0-------0-------0-------0-------0-------0-------0-------0-------|
   *   *   *   *   *   *   *   *   *   *   *   *   *   *   *   * 



e|-----------------------0---------------0---------------0---------|
B|-----1-----1-----0h1----------------1--------1---0---------------|
G|-----2-----2---2-----------2------2--------2---------------0-----|
D|-----3-------3-------3-------3-------3-------3-------3---------0-|
A|-----------------------------------------------------------------|
E|-1-------1-------1-------1-------1-------1-------1-------1-------|
   *   *   *   *   *   *   *   *   *   *   *   *   *   *   *   * 



e|-----------------0-------------------------------------0---------|
B|-----------1-----------1-------------0h1---1-----0---------------|
G|-----0---------0-----------0---------------0---------------0-----|
D|-----2-------2-------2-------0-------0h2-----2---0---0-------0---|
A|-3-------3-------3-------3---------------------------------------|
E|---------------------------------3-------3-------3-------3-------|
   *   *   *   *   *   *   *   *   *   *   *   *   *   *   *   * 


                             W   I've
e|-----------------------0-----------------------------------------|
B|-----0h1---1-----0-----------------------------------------------|
G|-----------0---------------0-------------------------------------|
D|-----0h2-----2---0---0-------0-----------------------------------|
A|-----------------------------------------------------------------|
E|-3-------3-------3-------3---------------------------------------|
   *   *   *   *   *   *   *   *  


Verse 4:


  2:56
           s   my      dream in                            I dnt do
e|-------0---------------0-------------------------------0---------|
B|-1---------1-----1-------------------1-----1-----0h1-------------|
G|-0---0-------0---2---------0---------0h2-------2-----------0-----|
D|---------------------2-------2-------3-------3-------3-------0---|
A|-3-------3-------0-------0---------------------------------------|
E|---------------------------------1-------1-------1-------1-------|
   *   *   *   *   *   *   *   *   *   *   *   *   *   *   *   * 

  
           too m   sche  ming
e|-------0---------------0-------------------------------0---------|
B|---1-------1-----1-------------------1-----1-----0h1-------------|
G|-----0-------0---2---------0---------0h2-------2-----------0-----|
D|---------------------2-------2-------3-------3-------3-------0---|
A|-3-------3-------0-------0---------------------------------------|
E|---------------------------------1-------1-------1-------1-------|
   *   *   *   *   *   *   *   *   *   *   *   *   *   *   *   * 

  3:05
   These                           Days
e|-------0---------------0-------------------------0---------------|
B|---0-------------3-------------------------0-----------0---------|
G|-----------0---------------0---------0---------0-----------0-----|
D|-----2-------2-------2-------2-------2-------2-------2-------0---|
A|-----------------------------------------------------------------|
E|-0-------0-------0-------0-------0-------0-------0-------0-------|
   *   *   *   *   *   *   *   *   *   *   *   *   *   *   *   * 



e|-----------0-----------0-----------------------------------------|
B|-----0-----------0-----------------------------------------------|
G|-----------------0---------0-------------------------------------|
D|-----2-------2-------2-------0-----------------------------------|
A|-----------------------------------------------------------------|
E|-0-------0-------0-------0---------------------------------------|
   *   *   *   *   *   *   *   *   

  3:12
  
e|-----------------------0-----------------------------------------|
B|-----1-----1-----0h1-----------------1-----1-----0h1---1---------|
G|-----2-----2-----2---------2---------2-----2-----2---------0-----|
D|-----3-------3-------3-------3-------3-------3-------3-------0---|
A|-----------------------------------------------------------------|
E|-1-------1-------1-------1-------1-------1-------1-------1-------|
   *   *   *   *   *   *   *   *   *   *   *   *   *   *   *   *   

  
                                   
e|-----------------3-------------------------------------0---------|
B|-----------1-----------1-------------0h1---1-----0---------------|
G|-----0-------0-------0-----0---------------0-----0---------0-----|
D|-----------------------------2-------0h2-----2---0---0-------0---|
A|-3-------3-------3-------3---------------------------------------|
E|---------------------------------3-------3-------3-------3-------|
   *   *   *   *   *   *   *   *   *   *   *   *   *   *   *   * 

  3:21
   
e|-------------------------------------------------------0---------|
B|-1-------0-------1---------0---------1-----1-----0h1-------------|
G|-0-----0-------0-------2-------------2-----2-----2---------2-----|
D|-----2-------2-------2---------------3-------3-------3-------3---|
A|-3-------2-------0-----------------------------------------------|
E|-------------------------3---0---1-------1-------1-------1-------|
   *   *   *   *   *   *   *   *   *   *   *   *   *   *   *   * 



e|-----------------------0-------------------------------0---------|
B|-----0h1---1-----0h1-----------------0h1---1-----0h1-------------|
G|-----2-----2-----2---------2---------2-----2-----1---------0-----|
D|-----3-------3-------3-------3-------3-------3-------3-------0---|
A|-----------------------------------------------------------------|
E|-1-------1-------1-------1-------1-------1-------1-------1-------|
   *   *   *   *   *   *   *   *   *   *   *   *   *   *   *   * 

  3:31                
              
e|-----------------0-----------------------------------------------|
B|-----------------------------------------------------------------|
G|-------0---0-----------0---0-------------------------------------|
D|-----2-------2-------2-------2-----------------------------------|
A|-3-------3-------3-------3---------------------------------------|
E|-----------------------------------------------------------------|
   *   *   *   *   *   *   *   *   


Outro:


  3:32

e|-------0---------------0-------------------------------0---------|
B|-1---------1-----1-------------------1-----1-----0h1-------------|
G|-0---------------2---------2---------0h2-------2-----------0-----|
D|-----0-------0-------2-------2-------3-------3-------3-------0---|
A|-3-------3-------0-------0---------------------------------------|
E|---------------------------------1-------1-------1-------1-------|
   *   *   *   *   *   *   *   *   *   *   *   *   *   *   *   * 

  
           
e|-------0-----------------------------------------------0---------|
B|----1------1-1---1-------------------1-----1-----0h1-------------|
G|--0--------------2---------2---------0h2-------2-----------0-----|
D|-----2-------2-------2-------2-------3-------3-------3-------0---|
A|-3-------3-------0-------0---------------------------------------|
E|---------------------------------1-------1-------1-------1-------|
   *   *   *   *   *   *   *   *   *   *   *   *   *   *   *   * 

  3:41
   
e|-------0---------3-----0-------------------0-----------0---------|
B|---0---------------------------------3-----------3---------------|
G|-----------0---------------0---------0---------0-0---------0-----|
D|-----2-------2-------2-------2-------2-------2-------2-------0---|
A|-----------------------------------------------------------------|
E|-0-------0-------0-------0-------0-------0-------0-------0-------|
   *   *   *   *   *   *   *   *   *   *   *   *   *   *   *   * 



e|-----------------------0---------------0---------------0---------|
B|-----1-----1-----0h1----------------1--------1---0---------------|
G|-----2-----2---2-----------2------2--------2---------------0-----|
D|-----3-------3-------3-------3-------3-------3-------3-----------|
A|-----------------------------------------------------------------|
E|-1-------1-------1-------1-------1-------1-------1-------1-------|
   *   *   *   *   *   *   *   *   *   *   *   *   *   *   *   * 

  3:51

e|-----------0-----3-----0-------------------------------0---------|
B|-----0-------------------------------0h1---1-----0---------------|
G|-----0-------0-------0-----0---------------0-----0---------0-----|
D|-----------------------------0-------0h2-----2---0---0-------0---|
A|-3-------3-------3-------3---------------------------------------|
E|---------------------------------3-------3-------3-------3-------|
   *   *   *   *   *   *   *   *   *   *   *   *   *   *   *   * 


       Em                        
e|-----3-----------------------------------------------------------|
B|-----5-----------------------------------------------------------|
G|-----4-----------------------------------------------------------|
D|-----5-----------------------------------------------------------|
A|-----3-----------------------------------------------------------|
E|-----3-----------------------------------------------------------|
   *   *   *   *   *   *   *   *  

            
            
Suggest correction
Creating personal tab
Creating personal tab
You can edit any tab online and save it as your Personal.

You can edit, replace or remove any tab part or add personal notes – all changes will be seen only by you.

Personal tabs can be accessed anytime from any device, even offline.
Learn more »
comments
print report bad tab
4 comments total. Showing first comments.
+1 reply
framazzi 235 Jul 13, 2015 10:49 AM

That's amazing!! Thanks very much!! Perfect!

+1 reply
oddysee3030 125 Feb 16, 2016 10:46 PM

Oh... okay... so this is a 'novice' song, eh? Oooooooooooooooookay then... No but really thanks so much for doing this, I have loved that video for years and I'm glad somebody else enjoyed it as much as me. <3

-1 reply
daraotl 12 Jul 19, 2017 08:42 PM

The finger roll he does on the first "theeeeeese daaaaaays" is simplified in this tab; I've never had a music 'education' but he does it quite fast in 16th notes or something while you have it in quarters (the way you tab it makes it slower, leaves out a note). But this is a great damn tab; everything in it still sounds good, if not exactly the same. Nice job.

guest
You may want to rate the tab now too:
select rating
Wanna post a correction for this tab? Suggest correction