Oops, an error
Loading. Please wait.

Time Of The Blue intro tab

version 1
version 1

Intro

Whole song

883 views 3 this week
1 commentread comment
1 2 3 4 5
x 3
add to favorites
×
Save as Personal and add changes to this tab that will be seen only by you. Learn more ›
×
You can save this tab as Personal to edit and correct it or add notes. All changes will be seen only by you. Learn more »
launch autoscroll
font size
0
reset
how to read this tab
guitar tuner
edit
Autoscroll
slow
fast
+/-
esc
set tempo
stop
Tuning: CGCGCe# (open C, but with top string tuned up by semi tone)
Capo: 4th

This is an updated intro tab, inspired by MrEma93's submission.


[INTRO/VERSE/INTERLUDE]

E|--0--0---0--0--0--0--0--0|---0--0---0--0--0--0--0--0|---0--0---0--0--0--0--0--0|---0--0---0--0--0--0-------|
C|-0--0---0--0--0--0--0--0-|--0--0---0--0--0--0--0--0-|--0--0---0--0--0--0--0--0-|--0--0---0--0--0--0----0--0|
G|---2------2-----2-----0--|----2------2-----2-----0--|----2------2-----2-----0--|----2------2-----2----0--0-|
C|2-----2------------2-----|-0-----0------------0-----|-2-----2------------2-----|-0-----0------------/5--4--|
G|-------------2-----------|--------------2-----------|--------------2-----------|--------------2------------|
C|-------------------------|--------------------------|--------------------------|---------------------------|

E|---0--0---0--0--0------------|---0--0---0--0--0--0--0--0|--------------------------|
C|--0--0---0--0--0---0--0--0--0|--0--0---0--0--0--0--0--0-|---0--0--0--0--0--0--0--0-|
G|----5------5------0--0--0--0-|----2------2-----0-----0--|--5--5--5--5--0--0--0--0--|
C|-0-----0--------/7--5--4--7--|--------------------------|----0-----0-----7-----7---|
G|-----------------------------|-2-----2------2-----2-----|--------------------------|
C|-----------------------------|--------------------------|/5-----5-----5-----5------|

E|---------------------------|
C|---0--0--0--0---0--0--0--0-|
G|--0--0--0--0---0--0--0--0--|
C|----7-----7------7-----7---|
G|-0-----0-----0------0------|
C|---------------------------|



************************************

| /  Slide up

************************************

            
            
Suggest correction
Creating personal tab
Creating personal tab
You can edit any tab online and save it as your Personal.

You can edit, replace or remove any tab part or add personal notes – all changes will be seen only by you.

Personal tabs can be accessed anytime from any device, even offline.
Learn more »
Give kudos to tab author, rate the tab!
1 2 3 4 5
comments
print report bad tab
1 comment total.
0 reply
fluffyhead88 31 Jul 25, 2016 08:43 PM

Hey man! Thanks for the tab, it helped me get my bearings on the song. After listening closely however I think that he has the top string tuned to D and is holding the 3rd fret for the first two positions, and then switching to open on the same strings for the second half.

This also frees up some of the open string positions later so you're not holding 5s and 7s unnecessarily :)

guest
Wanna post a correction for this tab? Suggest correction