Oops, an error
Loading. Please wait.

Where Do My Bluebirds Fly tab

version 1
version 1

Whole song

Interactive

76,813 views 15 this week
7 commentsread comments
1 2 3 4 5
x 11
add to favorites
×
Save as Personal and add changes to this tab that will be seen only by you. Learn more ›
×
You can save this tab as Personal to edit and correct it or add notes. All changes will be seen only by you. Learn more »
launch autoscroll
font size
0
reset
how to read this tab
guitar tuner
edit
Autoscroll
slow
fast
+/-
esc
set tempo
stop
Author
Unregistered
e|--------------0----------|
B|----------0-------0------|
G|-----0p2--------------0--|
D|-----0------0---0-----0--|
A|---0----0-----0-----0----|
e|-------------------------|

e|--------------1----------|
B|----------0-------0------|
G|-----2----------------0--|
D|-----3------3---3-----0--|
A|---0----0-----0-----0----|
e|-------------------------|

e|--------------3----------|
B|----------0-------0------|
G|-----0----------------0--|
D|-----1------1---1-----1--|
A|-------------------------|
e|---1---1------1-----1----|

e|--------------0----------|
B|----------0-------0------|
G|-----0p2--------------0--|
D|-----3------3---3-----3--|
A|-------------------------|
e|---3---3------3-----3----|

e|--------------0----------|
B|----------0-------0------|
G|-----0p2--------------0--|
D|-----0------0---0-----0--|
A|---0----0-----0-----0----|
e|-------------------------|

e|--------------1----------|
B|----------0-------0------|
G|-----2----------------0--|
D|-----3------3---3-----0--|
A|---0----0-----0-----0----|
e|-------------------------|

e|--------------3----------|
B|----------0-------0------|
G|-----0----------------0--|
D|-----1------1---1-----1--|
A|-------------------------|
e|---1---1------1-----1----|

e|--------------0----------|
B|----------0-------0------|
G|-----0p2--------------0--|
D|-----3------3---3-----3--|
A|-------------------------|
e|---3---3------3-----3----|

e|--------------3----------|
B|----------0-------0------|
G|-----0----------------0--|
D|-----1------1---1-----1--|
A|-------------------------|
e|---1---1------1-----1----|

e|--------------0----------|
B|----------0-------0------|
G|-----2----------------0--|
D|-----3------3---3-----3--|
A|-------------------------|
e|---3---3------3-----3----|

e|--------------0----------|
B|----------0-------0------|
G|-----3----------------0--|
D|-----0------0---0-----0--|
A|---3----3-----3-----3----|
e|-------------------------|

e|--------------3----------|
B|----------0-------0------|
G|-----0----------------0--|
D|-----1------1---1-----1--|
A|-------------------------|
e|---1---1------1-----1----|

e|--------------0----------|
B|----------0-------0------|
G|-----0----------------0--|
D|-----1------1---1-----1--|
A|-------------------------|
e|---1---1------1-----1----|

e|--------------0----------|
B|----------0-------0------|
G|-----2----------------0--|
D|-----3------3---3-----3--|
A|-------------------------|
e|---3---3------3-----3----|

e|--------------0----------|
B|----------0-------0------|
G|-----2----------------0--|
D|-----3------3---2-----2--|
A|-------------------------|
e|---3---3------2-----2----|

(Repeat)


************************************

| p  Pull-off

************************************

            
            
Suggest correction
Creating personal tab
Creating personal tab
You can edit any tab online and save it as your Personal.

You can edit, replace or remove any tab part or add personal notes – all changes will be seen only by you.

Personal tabs can be accessed anytime from any device, even offline.
Learn more »
comments
print report bad tab
7 comments total. Showing first comments.
0 reply
rigoletto 144 Feb 25, 2009 04:48 AM

awesome, 5d

0 reply
tombit 52 Mar 28, 2009 09:56 PM

You got the tuning and fingering right but the arpeggios are a little off. I just submitted a tab I think is a little closer, have a look when it comes up.

0 reply
Bonzo]xxl 289 May 21, 2010 05:52 AM

Great tab!
You forgot to mention that he mostly plays it with a capo on the 8th fret but i think that's quite obvious.

The intro would be like this

|D--------------------------|
|Bb-----0----0---0---0------|
|G------2----2---2---2---2--|
|D------5-----5-----5-----5-|
|G---0-----0-----0-----0----|
|D--------------------------|

|D--------------------------|
|Bb-----0----0---0---0------|
|G------2----2---2---2---2--|
|D------4-----4-----4-----4-|
|G---0-----0-----0-----0----|
|D--------------------------|

|D--------------------------|
|Bb-----0----0---0---0------|
|G------0----0---0---0---0--|
|D------1-----1-----1-----1-|
|G--------------------------|
|D---1-----1-----1-----1----|

|D--------------------------|
|Bb-----2----2---0-----0----|
|G------2----2---2-----0----|
|D------4-----4-------------|
|G--------------------------|
|D---0-----0-----0-----0----|

guest
Wanna post a correction for this tab? Suggest correction