Oops, an error
Loading. Please wait.

Youre Going Back tab

26,936 views 39 this week
no commentswrite comment
1 2 3 4 5
x 15
add to favorites
×
Save as Personal and add changes to this tab that will be seen only by you. Learn more ›
×
You can save this tab as Personal to edit and correct it or add notes. All changes will be seen only by you. Learn more »
launch autoscroll
font size
0
reset
how to read this tab
guitar tuner
edit
Autoscroll
slow
fast
+/-
esc
set tempo
stop
Tuning: DGDGBD  
Capo 5

[Intro]
   Each shape represents roughly one up and down strum
D|--0-0-0-0-0-0-0-0--0-0-0-0-0-0-0-0--0-0-0-0-0-0-0-0--0-0-0-0-0-0-0-0-|
B|--0-0-0-0-0-0-0-0--0-0-0-0-0-0-0-0--0-0-0-0-0-0-0-0--0-0-0-0-0-0-0-0-|
G|--4-4-4-4-4-4-4-4--0-0-0-0-0-0-0-0--0-0-0-0-0-0-0-0--0-0-0-0-0-0-0-0-|
D|--5-5-5-5-5-5-5-5--0-0-0-0-0-0-0-0--5-5-5-5-5-5-5-5--4-4-4-4-4-4-4-4-|
G|--x-x-x-x-x-x-x-x--4-4-4-4-4-4-4-4--5-5-5-5-5-5-5-5--2-2-2-2-2-2-2-2-|
D|--5-5-5-5-5-5-4-0--2-2-2-2-2-2-2-0--x-x-x-x-x-x-x-x--0-0-0-0-0-0-0-0-|

   The above repeats, but with little diddles, I do something like:
D|--0----------------0----------------0-0-0-0-0-0-0-0--0-0-0-0-0-0-0-0-|
B|--0----------------0----------------0-0-0-0-0-0-0-0--0-0-0-0-0-0-0-0-|
G|--4----------------0----------------0-0-0-0-0-0-0-0--0-0-0-0-0-0-0-0-|
D|--5----------------0----------------5-5-5-5-5-5-5-5--4-4-4-4-4-4-4-4-|
G|--x----------------4----------------5-0-5-0-5-5-5-5--2-0-2-0-2-2-2-2-|
D|--4h5--------------0h2--------------x-x-x-x-x-x-x-x--0-0-0-0-0-0-0-0-|

[Verse]
  I could roll you to hell like you swam from your heavens
D|--------0-------------------------------------0----------------------|
B|--------0-------------------------------------0----------------------|
G|--------4-------------------------------------0----------------------|
D|--------5-------------------------------------4----------------------|
G|--------x-------------------------------------2----------------------|
D|--------5-------------------------------------0----------------------|

  I could drive you so safe I could walk you to here
D|--------0------------0------------0-----------0----------------------|
B|--------0------------0------------0-----------0----------------------|
G|--------0-----------(4)--------\-(2)----------4----------------------|
D|-------(2)-----------5---------\--4-----------5----------------------|
G|--------4------------4---------\--2-----------x----------------------|
D|--------2------------0------------0-----------5----------------------|

[Chorus]
  But now you're goin back... Yuh-ORRRRRRRRR goin back
D|--------0-----------------------0---------------0--------------------|
B|--------0-----------------------0-m-------------0--------------------|
G|--------0-----------------------4-u-------------4--------------------|
D|--------4-----------------------5-t-------------5--------------------|
G|--------2-----------------------x-e-------------x--------------------|
D|--------0-----------------------5---------------5--------------------|

[Bridge]
  You said, "Driver please, don't go that FUCK-IN way"
D|-----------0---------------------------0------0----------------------|
B|-----------0---------------------------0------0----------------------|
G|-----------0---------------------------0------0----------------------|
D|-----------5---------------------------4------5----------------------|
G|-----------5---------------------------2------0----------------------|
D|-----------x---------------------------0------5----------------------|

   You said, "Just let it go away,"           you said "just let it go"
D|-----------------0----------0-------------0-x-x-x-x-x-x-x-x-x-x-x-x--|
B|-----------------0----------0-------------0-x-x-x-x-x-x-x-x-x-x-x-x--|
G|-----------------0----------0-------------0-x-x-x-x-x-x-x-x-x-x-x-x--|
D|-----------------4----------5-------------4-x-x-x-x-x-x-x-x-x-x-x-x--|
G|-----------------0----------5-------------2-x-x-x-x-x-x-x-x-x-x-x-x--|
D|-----------------4----------2-------------0-x-x-x-x-x-x-x-x-x-x-x-x--|

(The chords he uses for the little Sade "By Your Side" outro are his intro
ones, and after he says "holdin you..." he plays a variation, like 055040*)


************************************

| x    Dead note
| h    Hammer-on
| (n)  Ghost note
| \    Slide down
| t    Tapping 

************************************

            
            
Suggest correction
Creating personal tab
Creating personal tab
You can edit any tab online and save it as your Personal.

You can edit, replace or remove any tab part or add personal notes – all changes will be seen only by you.

Personal tabs can be accessed anytime from any device, even offline.
Learn more »
comments
print report bad tab
guest
Wanna post a correction for this tab? Suggest correction