Oops, an error
Loading. Please wait.

Ball Of Confusion bass

version 3
version 3

Whole song

314 views 1 this week
no commentswrite comment
1 2 3 4 5
2 more votes to show rating
add to favorites
×
Save as Personal and add changes to this tab that will be seen only by you. Learn more ›
×
You can save this tab as Personal to edit and correct it or add notes. All changes will be seen only by you. Learn more »
launch autoscroll
font size
0
reset
guitar tuner
edit
Autoscroll
slow
fast
+/-
esc
set tempo
stop
Author
Difficulty
Ball Of Confusion
Released by The Temptations in 1970 this track peaked at
Number 7 in UK. Bassist performance Bob Babbitt with Stevie
Wonder on Harmonica. Tab by bass50611. I have checked other 
bass tabs and listen to this bass line so many times, over 
and over again. One has got to listen, and really listen to
Bob Babbitt’s opening riff. He very cleverly plays an open
string A twice instead of all B flats. 
Comments bass254@btinternet.com 

Intro:                            (Play This x3)
G|---------------------------------------------
D|-----------------------1---------------------
A|--1-33--0-33-0-3-1-3-----1-33--0-33-0-3-1-3--
E|-3-------------------------------------------

Verse 1:                         (Play This x16)
G|---------------------------------------------
D|-----------------------1---------------------
A|--1-33--0-33-0-3-1-3-----1-33--0-33-0-3-1-3--
E|-3-------------------------------------------

Bridge:
          .         .         .
G|----------------2-5-------4-7------------------------
D|------2-5------3---------5----------33--33--3--3-3-3-
A|---1-3-----------------------------------------------
E|--3--------------------------------------------------

Chorus:                             (Play This x2)
G|---------------------------------------------
D|-----------------------1---------------------
A|--1-33--0-33-0-3-1-3-----1-33--0-33-0-3-1-3--
E|-3-------------------------------------------

Verse 2:                          (Play This x6)
G|---------------------------------------------
D|-----------------------1---------------------
A|--1-33--0-33-0-3-1-3-----1-33--0-33-0-3-1-3--
E|-3-------------------------------------------

Repeat Bridge:

Repeat Chorus To Fade:

            
            
Suggest correction
Creating personal tab
Creating personal tab
You can edit any tab online and save it as your Personal.

You can edit, replace or remove any tab part or add personal notes – all changes will be seen only by you.

Personal tabs can be accessed anytime from any device, even offline.
Learn more »
Give kudos to tab author, rate the tab!
1 2 3 4 5
comments
print report bad tab
guest
You may want to rate the tab now too:
select rating
Wanna post a correction for this tab? Suggest correction