Oops, an error
Loading. Please wait.

Ball Of Confusion bass

version 1
version 1

Whole song

12,129 views 24 this week
3 commentsread comments
1 2 3 4 5
x 7
add to favorites
×
Save as Personal and add changes to this tab that will be seen only by you. Learn more ›
×
You can save this tab as Personal to edit and correct it or add notes. All changes will be seen only by you. Learn more »
launch autoscroll
font size
0
reset
guitar tuner
edit
Autoscroll
slow
fast
+/-
esc
set tempo
stop
----------------------------------------------------------------------------
                             BALL OF CONFUSION - Temptations
----------------------------------------------------------------------------

Tabbed By : WibbleWobble
e-mail: organisedchaos@talktalk.net

Tuning: Standard EADG

this is basically it,  apart from the bridge

G|--------------------------------------------------------------------------|
D|---------------------1----------------------------------------------------|
A|---1-33-1-33-1-3-1-3---1-33-1-33-1-3-1-3----------------------------------|
E|-3------------------------------------------------------------------------|

the bridge:
G|-----------2-5----4-7-----------------------------------------------------|
D|---2-5---3------5---------------------------------------------------------|
A|-3------------------------------------------------------------------------|
E|--------------------------------------------------------------------------|

and the slight change just before going back to main riff
G|--------------------------------------------------------------------------|
D|-3-3-3-3-3-3-3-3-3--------------------------------------------------------|
A|--------------------------------------------------------------------------|
E|--------------------------------------------------------------------------|

            
            
Suggest correction
Creating personal tab
Creating personal tab
You can edit any tab online and save it as your Personal.

You can edit, replace or remove any tab part or add personal notes – all changes will be seen only by you.

Personal tabs can be accessed anytime from any device, even offline.
Learn more »
comments
print report bad tab
3 comments total.
0 reply
davidpn 207 Nov 04, 2009 02:44 PM

Where you have A's in the verse, it's Bb, and at the end of the bridge there's a string of F's plus an Eb that leads into the verse riff again.

0 reply
68lpjr 10 May 10, 2010 04:31 AM

yep, it's Bb, you can here it plain as day when it's played

0 reply
jeannenoel1 10 Sep 02, 2017 02:44 AM

I'm new to bass and like this tune - makes practicing fun. Thank you.

guest
You may want to rate the tab now too:
select rating
Wanna post a correction for this tab? Suggest correction