Oops, an error
Loading. Please wait.
We have an official My Girl tab made by UG professional guitarists. Check out the tab »
×

My Girl bass

version 6
version 6

Whole song

Interactive

88 views 1 this week
no commentswrite comment
1 2 3 4 5
3 more votes to show rating
add to favorites
×
Save as Personal and add changes to this tab that will be seen only by you. Learn more ›
×
You can save this tab as Personal to edit and correct it or add notes. All changes will be seen only by you. Learn more »
launch autoscroll
font size
0
reset
guitar tuner
backing track
0:00
0:00
edit
Autoscroll
slow
fast
+/-
esc
set tempo
stop
About this tab version
Instead of a faded outro i have tabbed an ending. Some other tabs have tab a lead guitar riff instead of bass riff and ending missing on others. Was this info helpful? Yes No
My Girl 
First single release in the UK for Motown legends The Temptations in 1965.
And I can’t believe that it only reached number 43 in UK Charts. (#1 U.S.A)
Bass performance James Jamerson. Tab by bass50611. Wish I had a £1 for
Every time I played this with my band and this is what I played including
How we used to end the song.

Intro:
G|-------------------------------------------------------------------|
D|-5-------5-------5-------5-------5-------5-------5-------5-------5-|
A|---3--3----3--3----3--3----3--3----3--3----3--3----3--3----3--3----|
E|-------------------------------------------------------------------|

Verse 1:
G|----------------------------------------------------------------|
D|----------------------------------------------------------------|
A|-3---3------------3---3-----------3---3-----------3---3---------|
E|----------1---1-----------1---1-----------1---1-----------1---1-|

G|--------------------------------|
D|--------3--4--5-----------3---5-|
A|-3---5------------3---5---------|
E|--------------------------------|

Chorus 1:                   (Break)
G|-----------------------------------------|
D|-----------------------------------------|
A|-3---3---3----3--5---5----5------5-5-----|
E|-------------3-----------------------3-3-|

Verse 2:
G|----------------------------------------------------------|
D|----------------------------------------------------------|
A|-3-------------2-3-------------2-3------------3--3--------|
E|----3--1---1--------3--1---1--------3--1---1-------3-1--1-|

G|------------------------------------|
D|-------2-3---5------------2--3-3--5-|
A|-3---5-----------3--3---5-----------|
E|------------------------------------|

Chorus 2:                    (Break)
G|---------------------------------------------|
D|---------------------------------------------|
A|-2-3-----2-3-----3--5-------5--------5-5-----|
E|------3-------3---------5----------------3-3-|

Interlude Into Key Change:
G|-----------------------------------------------------------------|
D|-------5-------5-------5-------5-------5-------5-------5-------5-|
A|-3--3----3--3----3--3----3--3----3--3----3--3----3--3----3--3----|
E|-----------------------------------------------------------------|

                             (Key Change)                (Break)
G|----------------------------------------------------------|
D|------------------------3---------------------------------|
A|-3--------------3--3------0--5--5-------------------------|
E|-----3---1---1--------1------------3---3-1-0---0----5-5-5-|

Verse 3:
G|----------------------------------------------------------------|
D|----------------------------------------------------------------|
A|-5----------------5----5----------5---5-----------5----5--------|
E|----5---3---3--5-----5----3---3----------3---3--5----5----3---3-|

G|---------------------------------|
D|---------------------------------|
A|-5----------------5--------------|
E|-----0--2-3---5-------0--2-3---5-|

Outro:
G|---------------------------------------------------------------------|
D|------------------------7-7--5-5--4-4--------------------------------|
A|-4-5-----5----5--7---7----------------7-7---5--------5-----5-6-7---7-|
E|-----5-5----5---------------------------------5-5--5-----5-----------|

                                                                   (End)
G|---------------------------------------------------------------------|
D|-----------------------------------------------7-7--5-5--4-4---------|
A|---------------------5--------5-----5-6-7---7----------------7-7---5-|
E|-5-5--3-3--2-2--0-0----5-5--5-----5----------------------------------|


            
            
Suggest correction
Creating personal tab
Creating personal tab
You can edit any tab online and save it as your Personal.

You can edit, replace or remove any tab part or add personal notes – all changes will be seen only by you.

Personal tabs can be accessed anytime from any device, even offline.
Learn more »
Give kudos to tab author, rate the tab!
1 2 3 4 5
comments
print report bad tab
guest
You may want to rate the tab now too:
select rating
Wanna post a correction for this tab? Suggest correction