Oops, an error
Loading. Please wait.

You Shit Me To Tears chords

1,170 views 3 this week
1 commentread comment
1 2 3 4 5
x 6
add to favorites
×
Save as Personal and add changes to this tab that will be seen only by you. Learn more ›
×
You can save this tab as Personal to edit and correct it or add notes. All changes will be seen only by you. Learn more »
launch autoscroll
font size
0
reset
transpose
0
reset
display chords
guitar tuner
edit
Autoscroll
slow
fast
+/-
esc
set tempo
stop
Strumming
There is no strumming pattern for this song yet. and get +5 IQ
Here we are guys, any mistakes please comment your correction or email me at:
hoops-97@live.com.au
I've done my best to put everything in order so autoscroll will be useful on this one.

Standard Tuning   

D  A  Bm G
E|-5--5--7--3-|
B|-7--5--7--3-|
G|-7--6--7--4-|
D|-7--7--9--5-|
A|-5--7--9--5-|
E|-5--5--7--3-|


Intro: 
|D-A-Bm-G| x4


Verse 1:

D                A          Bm           G
There's a little man and he sticks in my mind
D                  A           Bm       G
He's a pain in the arse and he seems to find
      D          A            Bm      G
Every bone in my body with an axe to grind
D            A         Bm  
All I got to say about it
               
               
Chorus
               D     A   Bm     
You shit me to tears
G                   D    A   Bm
And I'm makin' this clear
G              D     A   Bm
Just give me a break
G              D     A   Bm
For fuck's sake
G
For fuck's

Interlude Riff:
E|--10--10----7-----7----3--2--3----3--2-------|
B|----14--------10------------------------5--3-|
G|---------------------------------------------|
D|---------------------------------------------|
A|---------------------------------------------|
E|---------------------------------------------|x4


Verse 2:
     D         A          Bm          G
He's got a big car and he drives real fast
        D                      A               Bm           G
But you can't see where you're going with your head up your arse
    D              A                   Bm      G
His voice is kinda muffled 'cause it's full of shit
D            A         Bm  
All I got to say about it


Chorus:
               D     A   Bm     
You shit me to tears
G                   D    A   Bm
And I'm makin' this clear
G              D     A   Bm
Just give me a break
G              D     A   Bm
For fuck's sake
G              D     A   Bm
For fuck's sake
G              D     A   Bm
For fuck's sake
G              D     A   Bm   G 
For fuck's sake


Bridge: 

D          A                  Bm       G
My, Little Dougie, how you've grown so tall
       D                 A     Bm           G
You've grown into a very painful know-it-all
    D                  A            Bm        G
I'd like to shove your head into a barb wire fence
          D                A         Bm
But you'd probably tell me all about it


Chorus:
               D     A   Bm     
You shit me to tears
G                   D    A   Bm
And I'm makin' this clear
G              D     A   Bm
Just give me a break
G              D     A   Bm
For fuck's sake
G              D     A   Bm
For fuck's sake
G              D     A   Bm
For fuck's sake
G              D     A   Bm   G 
For fuck's sake

               D     A   Bm     
You shit me to tears
G                   D    A   Bm
And I'm makin' this clear
G              D     A   Bm
Just give me a break
G              D     A   Bm
For fuck's sake
G              D     A   Bm
For fuck's sake
G              D     A   Bm
For fuck's sake
G              D     A   Bm   G 
For fuck's sake


Chorus Riff:
E|--10--10----7-----7----3--2--3----3--2-------|
B|----14--------10------------------------5--3-|
G|---------------------------------------------|
D|---------------------------------------------|
A|---------------------------------------------|
E|---------------------------------------------|x4

E|--10----10----12----12----12-14-15----14-12------|
B|-----14----------15-------------------------15---|
G|-------------------------------------------------|
D|-------------------------------------------------|
A|-------------------------------------------------|
E|-------------------------------------------------|x2

End Chord:
D

            
            
Suggest correction
Creating personal tab
Creating personal tab
You can edit any tab online and save it as your Personal.

You can edit, replace or remove any tab part or add personal notes – all changes will be seen only by you.

Personal tabs can be accessed anytime from any device, even offline.
Learn more »
comments
print report bad tab
1 comment total.
+1 reply
The Fella 10 Mar 10, 2013 05:24 PM

This is prettay amazang

guest
You may want to rate the tab now too:
select rating
Wanna post a correction for this tab? Suggest correction