Oops, an error
Loading. Please wait.

A Pillar Of Salt tab

version 2
version 2

Whole song

Interactive

15,389 views 3 this week
3 commentsread comments
1 2 3 4 5
x 9
add to favorites
×
Save as Personal and add changes to this tab that will be seen only by you. Learn more ›
×
You can save this tab as Personal to edit and correct it or add notes. All changes will be seen only by you. Learn more »
launch autoscroll
font size
0
reset
how to read this tab
guitar tuner
edit
Autoscroll
slow
fast
+/-
esc
set tempo
stop
Author
Difficulty
-------------------------------------------------------------------------------
                        A Pillar of Salt - The Thermals
-------------------------------------------------------------------------------

Tabbed by: MoonBoots432
Tuning: Standard (EADGBe)


(Intro and Verses)
Guitar 1:
   (B)                       (E)       (B)                       (C#m)
e|------------------|-----------------|-----------------|-----------------|
B|------------------|---------9-9-9-9-|-----------------|---------5-5-5-5-|
G|--8-8-8-8-8-8-8-8-|-8-8-8-8-9-9-9-9-|-8-8-8-8-8-8-8-8-|-8-8-8-8-6-6-6-6-|
D|--9-9-9-9-9-9-9-9-|-9-9-9-9-9-9-9-9-|-9-9-9-9-9-9-9-9-|-9-9-9-9-6-6-6-6-|
A|--9-9-9-9-9-9-9-9-|-9-9-9-9-7-7-7-7-|-9-9-9-9-9-9-9-9-|-9-9-9-9-4-4-4-4-|
E|--7-7-7-7-7-7-7-7-|-7-7-7-7---------|-7-7-7-7-7-7-7-7-|-7-7-7-7---------|
      
   (G#m)                     (F#)      (E)
e|------------------|-----------------|-----------------|-----------------|
B|------------------|-----------------|-----------------|-----------------|
G|--4-4-4-4-4-4-4-4-|-4-4-4-4-3-3-3-3-|-1-1-1-1-1-1-1-1-|-1-1-1-1-1-1-1-1-|
D|--6-6-6-6-6-6-6-6-|-6-6-6-6-4-4-4-4-|-2-2-2-2-2-2-2-2-|-2-2-2-2-2-2-2-2-|
A|--6-6-6-6-6-6-6-6-|-6-6-6-6-4-4-4-4-|-2-2-2-2-2-2-2-2-|-2-2-2-2-2-2-2-2-|
E|--4-4-4-4-4-4-4-4-|-4-4-4-4-2-2-2-2-|-0-0-0-0-0-0-0-0-|-0-0-0-0-0-0-0-0-|

In the very first time through the intro, play two 16th notes
instead of an 8th on the chord changes.
Listen to song to hear what I mean.


(Main Lead)
Guitar 2:
e|------------------|---------6-7-6-7-|-7---------------|---------6-7-6-7-|
B|----0-4-0-4-0-4-0-|-4-0-4-0---------|---0-4-0-4-0-4-0-|-4-0-4-0---------|
G|------------------|-----------------|-----------------|-----------------|
D|------------------|-----------------|-----------------|-----------------|
A|------------------|-----------------|-----------------|-----------------|
E|------------------|-----------------|-----------------|-----------------|

e|------7-7-----7-7-|-----7-7-6-7-6-7-|-----7-7-----7-7-|-----7-7-6-7-6-7-|
B|--9-7-----9-7-----|-9-7-------------|-9-7-----9-7-----|-9-7-------------|
G|------------------|-----------------|-----------------|-----------------|
D|------------------|-----------------|-----------------|-----------------|
A|------------------|-----------------|-----------------|-----------------|
E|------------------|-----------------|-----------------|-----------------|


(Interlude)
Guitar 1:
   (F#)                                (C#m)            
e|------------------|-----------------|-----------------|-----------------|
B|------------------|-----------------|-5-5-5-5-5-5-5-5-|-5-5-5-5-5-5-5-5-|
G|--3-3-3-3-3-3-3-3-|-3-3-3-3-3-3-3-3-|-6-6-6-6-6-6-6-6-|-6-6-6-6-6-6-6-6-|
D|--4-4-4-4-4-4-4-4-|-4-4-4-4-4-4-4-4-|-6-6-6-6-6-6-6-6-|-6-6-6-6-6-6-6-6-|
A|--4-4-4-4-4-4-4-4-|-4-4-4-4-4-4-4-4-|-4-4-4-4-4-4-4-4-|-4-4-4-4-4-4-4-4-|
E|--2-2-2-2-2-2-2-2-|-2-2-2-2-2-2-2-2-|-----------------|-----------------|

   (B)                                 (F#)              (C#m)
e|------------------|-----------------|-----------------|-----------------|
B|------------------|-----------------|-----------------|-5-5-5-5-5-5-5-5-|
G|--8-8-8-8-8-8-8-8-|-8-8-8-8-8-8-8-8-|-3-3-3-3-3-3-3-3-|-6-6-6-6-6-6-6-6-|
D|--9-9-9-9-9-9-9-9-|-9-9-9-9-9-9-9-9-|-4-4-4-4-4-4-4-4-|-6-6-6-6-6-6-6-6-|
A|--9-9-9-9-9-9-9-9-|-9-9-9-9-9-9-9-9-|-4-4-4-4-4-4-4-4-|-4-4-4-4-4-4-4-4-|
E|--7-7-7-7-7-7-7-7-|-7-7-7-7-7-7-7-7-|-2-2-2-2-2-2-2-2-|-----------------|

**Only on 2nd time
e|------------------|
B|--5-5-5-5-5-5-5-5-|
G|--6-6-6-6-6-6-6-6-| Just an added measure of C#m on the second time through
D|--6-6-6-6-6-6-6-6-|
A|--4-4-4-4-4-4-4-4-|
E|------------------|


(Post-interlude) - Only played after first interlude
Guitar 1:
   (B)                                 (B)
e|------------------|-----------------|-----------------|-----------------|
B|--7*--------------|-(7)-------------|-7*--------------|-(7)-------------|
G|--8*--------------|-(8)-------------|-8*--------------|-(8)-------------|
D|--9*--------------|-(9)-------------|-9*--------------|-(9)-------------|
A|--9*--------------|-(9)-------------|-9*--------------|-(9)-------------|
E|--7*--------------|-(7)-------------|-7*--------------|-(7)-------------|
      
   (G#m)                               (E)
e|------------------|-----------------|-7*--------------|-(7)-------------|
B|--4*--------------|-(4)-------------|-9*--------------|-(9)-------------|
G|--4*--------------|-(4)-------------|-9*--------------|-(9)-------------|
D|--6*--------------|-(6)-------------|-9*--------------|-(9)-------------|
A|--6*--------------|-(6)-------------|-7*--------------|-(7)-------------|
E|--4*--------------|-(4)-------------|-----------------|-----------------|


(Outro Lead)
Guitar 2:
e|------------------|---------6-7-6-7-|-7---------------|---------6-7-6-7-|
B|----0-4-0-4-0-4-0-|-4-0-4-0---------|---0-4-0-4-0-4-0-|-4-0-4-0---------|
G|------------------|-----------------|-----------------|-----------------|
D|------------------|-----------------|-----------------|-----------------|
A|------------------|-----------------|-----------------|-----------------|
E|------------------|-----------------|-----------------|-----------------|

e|--7---------------|---------6-7-6-7-|-----------------|-----------------||
B|----0-4-0-4-0-4-0-|-4-0-4-0---------|-0*--------------|-(0)-------------||
G|------------------|-----------------|-----------------|-----------------||
D|------------------|-----------------|-----------------|-----------------||
A|------------------|-----------------|-----------------|-----------------||
E|------------------|-----------------|-----------------|-----------------||
                                                         |Feedback...|

Song Structure:
Intro x1
Intro w/Main Lead x1
Verse x 2
Intro w/Main Lead x1
Verse x2
Interlude x1
Post-interlude w/Main Lead x1
Verse x2
Interlude w/extra measure x1
Intro w/Main Lead x1
Outro Lead w/bass x1

A full, and hopefully correct tab.

            
            
Suggest correction
Creating personal tab
Creating personal tab
You can edit any tab online and save it as your Personal.

You can edit, replace or remove any tab part or add personal notes – all changes will be seen only by you.

Personal tabs can be accessed anytime from any device, even offline.
Learn more »
comments
print report bad tab
3 comments total.
+1 reply
Steveman 659 Oct 31, 2009 08:04 PM

that G# should be a G#m. But it's a good tab anyway.

+1 reply
MoonBoots432 210 Apr 28, 2011 12:04 PM

It's not a G#m, I assure you.

0 reply
InstruMentalCas 42 Jul 12, 2014 02:11 PM

Lack of accuracy.

guest
You may want to rate the tab now too:
select rating
Wanna post a correction for this tab? Suggest correction