Oops, an error
Loading. Please wait.

Keep Your Head bass

2,427 views 1 this week
no commentswrite comment
1 2 3 4 5
2 more votes to show rating
add to favorites
×
Save as Personal and add changes to this tab that will be seen only by you. Learn more ›
×
You can save this tab as Personal to edit and correct it or add notes. All changes will be seen only by you. Learn more »
launch autoscroll
font size
0
reset
guitar tuner
edit
Autoscroll
slow
fast
+/-
esc
set tempo
stop
Author
Difficulty
Part 1 - Bass comes in after Katie sings "You're in it on your own"
G|-------------------------------|
D|-------------------------------|
A|-------------------------------|
E|0-0-0-05-5-55-5-0-0-0-05-5-55-5|

Part 2 - Play this until Katie stops singing at about 1.33
G|---------------------------------------------------------------|
D|---------------------------------------------------------------|
A|7-7-7-7---------7-7-7-7---------7-7-7-7------------------------|
E|-------5-5-55-5--------5-5-55-5--------5-5-55-5-4-4-4-45-5-55-5|

If you want, you can play Part 1 in the gap between Part 2 and 3. I dont think thats how 
is on the record, but it fits alright.

Part 3 - Come in when Katie sings "Keep your head" for the 4th time.
G|---------------|
D|-------7-7-77-7|
A|7-7-7-7--------|
E|---------------|

Part 4 - Play this once when Katie sings "Push it kinda low"
G|---------------|
D|6-6-6-67-7-77-7|
A|---------------|
E|---------------|

Play Part 3 until the end of the song, but finish before the synth and guitar so they 
play the last 4 repetitions of the riff.

            
            
Suggest correction
Creating personal tab
Creating personal tab
You can edit any tab online and save it as your Personal.

You can edit, replace or remove any tab part or add personal notes – all changes will be seen only by you.

Personal tabs can be accessed anytime from any device, even offline.
Learn more »
Give kudos to tab author, rate the tab!
1 2 3 4 5
comments
print report bad tab
guest
You may want to rate the tab now too:
select rating
Wanna post a correction for this tab? Suggest correction