Oops, an error
Loading. Please wait.

Just Another Day bass

935 views 1 this week
no commentswrite comment
1 2 3 4 5
2 more votes to show rating
add to favorites
×
Save as Personal and add changes to this tab that will be seen only by you. Learn more ›
×
You can save this tab as Personal to edit and correct it or add notes. All changes will be seen only by you. Learn more »
launch autoscroll
font size
0
reset
guitar tuner
edit
Autoscroll
slow
fast
+/-
esc
set tempo
stop
Author
Ok, I haven't seen this song on here
and my band is covering it seeing as
how we have a chick singer. Have Fun!
This is a fun song to play. The Pre-Chorus
is the hardest part because you have to be
fast to get the high fill in!

Official Website of The Twenty Twos: www.thetwentytwos.com

Standard Tuning

intro X10
---------------------------|
---------------------------|
---567----567--------------|
55------55-----------------|

verse X4
----------------------------------------|
----------------------------------------|
----------------------567----567--------|
-55-3-0-3-55-3-0-3-55-----55------------|

Pre-Chorus X2
-----------------------|
----------777-55-------|
-----------------------|
-88-33-55--------55----|

verse X2
----------------------------------------|
----------------------------------------|
----------------------567----567--------|
-55-3-0-3-55-3-0-3-55-----55------------|

Pre-Chorus X2
-----------------------|
----------777-55-------|
-----------------------|
-88-33-55--------55----|
chorus X4
-----------------------------------------|
-----------------------------------------|
-----------------------------------------|
-5-5-5-5-5-8-8-8-8-8-3-3-3-3-3-5-5-5-5-5-|

verse X2
-----------------------------------------|
-----------------------------------------|
----------------------567----567---------|
-55-3-0-3-55-3-0-3-55-----55-------------|

Pre-Chorus X2
-----------------------|
----------777-55-------|
-----------------------|
-88-33-55--------55----|

chorus X5
-----------------------------------------|
-----------------------------------------|
-----------------------------------------|
-5-5-5-5-5-8-8-8-8-8-3-3-3-3-3-5-5-5-5-5-|

Outro X1
----------------------------------------|
----------------------------------------|
----------------------------------------|
-5-5-5-5-5-8-8-8-8-8-3-3-3-3-3-5~-------|

            
            
Suggest correction
Creating personal tab
Creating personal tab
You can edit any tab online and save it as your Personal.

You can edit, replace or remove any tab part or add personal notes – all changes will be seen only by you.

Personal tabs can be accessed anytime from any device, even offline.
Learn more »
Give kudos to tab author, rate the tab!
1 2 3 4 5
comments
print report bad tab
guest
You may want to rate the tab now too:
select rating
Wanna post a correction for this tab? Suggest correction