Oops, an error
Loading. Please wait.

Powder Burns tab

918 views 1 this week
3 commentsread comments
1 2 3 4 5
1 last vote to show rating
add to favorites
×
Save as Personal and add changes to this tab that will be seen only by you. Learn more ›
×
You can save this tab as Personal to edit and correct it or add notes. All changes will be seen only by you. Learn more »
launch autoscroll
font size
0
reset
how to read this tab
guitar tuner
edit
Autoscroll
slow
fast
+/-
esc
set tempo
stop
Author
THE TWILIGHT SINGERS

POWDER BURNS

tabbed by dan (yellowledbetter_69@hotmail.co.uk)

standard tuning

|----------------------------------|
|----------------------------------|
|--------6-------6--------6--------|
|------6-------6--------6----------|
|----4-----------------------------|
|-----------5--------4--------5----|
intro/verse

|--------------------------------------------------------|--------------|
|--------------------------------------------------------|--------------|
|-----------------4--4--4--4---6--6--6--6---2--2--2--2---|----------2---|
|----2--2--2--2---4--4--4--4---6--6--6--6---2--2--2--2---|---2------2---|
|----2--2--2--2---2--2--2--2---4--4--4--4---0--0--0--0---|---2------0---|
|----0--0--0--0------------------------------------------|---0----------|
chorus                                                first bridge

  (notes in brackets are sustained chord from chorus)
|------------------------------------------------|
|------------------------------------------------|
|--------------2------------4-----------2---------|
|----(2)-------2------------4-----------2---------|
|----(2)-------0------------2-----------0---------|
|----(0)------------------------------------------|
second bridge (bit before solo)

|------------------------------------------------------------------------|
|------------------------------------------------------/9-12--12-12/14---|
|--/9--9h11--9h11-9--------------/9--9h11--9h11--9-----------------------|
|-------------------11-/11-9-7----------------------11-------------------|
|------------------------------------------------------------------------|
|------------------------------------------------------------------------|
solo    with wah      other guitar plays verse

|------------------------------------------------------------------------|
|-------------------------------9---9-12-12-9-------------------9/12/14--|
|-------------------4h6----9h11---------------11-9-9h11-9----/9----------|
|-------2/4/6---4h6---------------------------------------11-------------|
|----/4------------------------------------------------------------------|
|------------------------------------------------------------------------|
solo  continued      let last note feedback

after solo, it's just repeating verse and chorus
that's it. any comments. suggestions etc email me.


            
            
Suggest correction
Creating personal tab
Creating personal tab
You can edit any tab online and save it as your Personal.

You can edit, replace or remove any tab part or add personal notes – all changes will be seen only by you.

Personal tabs can be accessed anytime from any device, even offline.
Learn more »
Give kudos to tab author, rate the tab!
1 2 3 4 5
comments
print report bad tab
3 comments total.
0 reply
Asmus 72 Feb 15, 2012 07:06 AM

Most evil (and cool) riff ever. Also the solo is great, but had problems with the last part... ended up playing this which is not very different:

|------------------------------------------------------------------------|
|-------------------------------7/9-12-12-12--------------------9/12/14--|
|-------------------4/6----9h11--------------13/11-9-9h11-9----/9---------|
|-------2h4/6---4h6---------------------------------------11-------------|
|----/4------------------------------------------------------------------|
|------------------------------------------------------------------------|

0 reply
Asmus 72 Feb 15, 2012 07:08 AM

Maybe this looks better...

|-------------------------------------------------------------------------|
|-------------------------------7/9-12-12-12--------------------9/12/14---|
|-------------------4/6----9h11--------------13/11-9-9h11-9----/9---------|
|-------2h4/6---4h6-----------------------------------------11-------------|
|----/4-------------------------------------------------------------------|
|-------------------------------------------------------------------------|

0 reply
Asmus 72 Feb 15, 2012 07:10 AM

and again... isn't it possible to edit your own comments?

|----------------------------------------------------------------------------|
|-------------------------------7/9-12-12-12-----------------------9/12/14---|
|-------------------4/6----9h11--------------13/11-9-9h11-9----/9------------|
|-------2h4/6---4h6-----------------------------------------11---------------|
|----/4----------------------------------------------------------------------|
|---------------------------------------------------------------------------|

guest
You may want to rate the tab now too:
select rating
Wanna post a correction for this tab? Suggest correction