Oops, an error
Loading. Please wait.
We have an official Teenage Kicks tab made by UG professional guitarists. Check out the tab »
×
20,159 views 45 this week
3 commentsread comments
1 2 3 4 5
x 17
add to favorites
×
Save as Personal and add changes to this tab that will be seen only by you. Learn more ›
×
You can save this tab as Personal to edit and correct it or add notes. All changes will be seen only by you. Learn more »
launch autoscroll
font size
0
reset
how to read this tab
guitar tuner
backing track
0:00
0:00
edit
Autoscroll
slow
fast
+/-
esc
set tempo
stop
Author
Difficulty
intermediate
Teenage Kicks - The Undertones
Tabbed by: Kyle M (Rocker05)
Email: Legolas19211@hotmail.com
Tuning: Standard

[Intro]
e|------------------------------------------------------------------------| 
B|------------------------------------------------------------------------|
G|-11--11--11111111--11111111---------------------------------------------|x2
D|-12--12--12121212--12121212--11--9--9--9999--9999--11-------------------|
A|-12--12--12121212--12121212--11--9--9--9999--9999--11-------------------|
E|-10--10--10101010--10101010--9---7--7--7777--7777--9--------------------|

[Verse]
e|------------------------------------------------------------------------| 
B|------------------------------------------------------------------------|
G|------------------------------------------------------------------------|
D|-12--12--12121212--12121212--11--9--9--9999--9999--11-------------------|
A|-12--12--12121212--12121212--11--9--9--9999--9999--11-------------------|
E|-10--10--10101010--10101010--9---7--7--7777--7777--9--------------------|

e|------------------------------------------------------------------------| 
B|------------------------------------------------------------------------|
G|------------------------------------------------------------------------|
D|-12--12--12121212--12121212--11--9--9--9999--9999--7--------------------|
A|-12--12--12121212--12121212--11--9--9--9999--9999--7--------------------|
E|-10--10--10101010--10101010--9---7--7--7777--7777--5--------------------|

[Chorus]
"I wanna hold her..."
e|------------------------------------------------------------------------| 
B|------------------------------------------------------------------------|
G|------------------------------------------------------------------------|
D|-5--555--555--555--6--7--777--777--7777---------------------------------|
A|-5--555--555--555--6--7--777--777--7777---------------------------------|
E|-3--333--333--333--4--5--555--555--5555---------------------------------|


[Verse]
e|------------------------------------------------------------------------| 
B|------------------------------------------------------------------------|
G|------------------------------------------------------------------------|
D|-12--12--12121212--12121212--11--9--9--9999--9999--11-------------------|
A|-12--12--12121212--12121212--11--9--9--9999--9999--11-------------------|
E|-10--10--10101010--10101010--9---7--7--7777--7777--9--------------------|

e|------------------------------------------------------------------------| 
B|------------------------------------------------------------------------|
G|------------------------------------------------------------------------|
D|-12--12--12121212--12121212--11--9--9--9999--9999--7--------------------|
A|-12--12--12121212--12121212--11--9--9--9999--9999--7--------------------|
E|-10--10--10101010--10101010--9---7--7--7777--7777--5--------------------|

[Chorus]
"I wanna hold her..."
e|------------------------------------------------------------------------| 
B|------------------------------------------------------------------------|
G|------------------------------------------------------------------------|
D|-5--555--555--555--6--7--777--777--7777---------------------------------|
A|-5--555--555--555--6--7--777--777--7777---------------------------------|
E|-3--333--333--333--4--5--555--555--5555---------------------------------|

[Interlude]
e|------------------------------------------------------------------------| 
B|------------------------------------------------------------------------|
G|-------------------11-1212-11-------------------------------------------|
D|-12--12--12121212--12-1212-12--9--9--9999--9999-9-----------------------|
A|-12--12--12121212--12-1010-12--9--9--9999--9999-9-----------------------|
E|-10--10--10101010--10------10--7--7--7777--7777-7-----------------------|

e|------------------------------------------------------------------------| 
B|------------------------------------------------------------------------|
G|-------------------11-1212-11-------------------------------------------|
D|-12--12--12121212--12-1212-12--9--9--9999--9999-11----------------------|
A|-12--12--12121212--12-1010-12--9--9--9999--9999-11----------------------|
E|-10--10--10101010--10------10--7--7--7777--7777-9-----------------------|

[Verse]
e|------------------------------------------------------------------------| 
B|------------------------------------------------------------------------|
G|------------------------------------------------------------------------|
D|-12--12--12121212--12121212--11--9--9--9999--9999--11-------------------|
A|-12--12--12121212--12121212--11--9--9--9999--9999--11-------------------|
E|-10--10--10101010--10101010--9---7--7--7777--7777--9--------------------|

e|------------------------------------------------------------------------| 
B|------------------------------------------------------------------------|
G|------------------------------------------------------------------------|
D|-12--12--12121212--12121212--11--9--9--9999--9999--7--------------------|
A|-12--12--12121212--12121212--11--9--9--9999--9999--7--------------------|
E|-10--10--10101010--10101010--9---7--7--7777--7777--5--------------------|

[Chorus]
"I wanna hold her..."
e|------------------------------------------------------------------------| 
B|------------------------------------------------------------------------|
G|------------------------------------------------------------------------|
D|-5--555--555--555--6--7--777--777--7777---------------------------------|
A|-5--555--555--555--6--7--777--777--7777---------------------------------|
E|-3--333--333--333--4--5--555--555--5555---------------------------------|

[Verse]
e|------------------------------------------------------------------------| 
B|------------------------------------------------------------------------|
G|------------------------------------------------------------------------|
D|-12--12--12121212--12121212--11--9--9--9999--9999--11-------------------|
A|-12--12--12121212--12121212--11--9--9--9999--9999--11-------------------|
E|-10--10--10101010--10101010--9---7--7--7777--7777--9--------------------|

e|------------------------------------------------------------------------| 
B|------------------------------------------------------------------------|
G|------------------------------------------------------------------------|
D|-12--12--12121212--12121212--11--9--9--9999--9999--7--------------------|
A|-12--12--12121212--12121212--11--9--9--9999--9999--7--------------------|
E|-10--10--10101010--10101010--9---7--7--7777--7777--5--------------------|

[Chorus]
"I wanna hold her..."
e|------------------------------------------------------------------------| 
B|------------------------------------------------------------------------|
G|------------------------------------------------------------------------|
D|-5--555--555--555--6--7--777--777--7777---------------------------------|
A|-5--555--555--555--6--7--777--777--7777---------------------------------|
E|-3--333--333--333--4--5--555--555--5555---------------------------------|

[Solo]
"All right!"
e|------------------------------------------------------------------------| 
B|--------------------10---10---10---10-----------------------------------|
G|----------12--12b--(14)-(14)-(14)-(14)r12-------------------------------|
D|----------12------------------------------------------------------------|
A|-------12---------------------------------------------------------------|
E|-10-10------------------------------------------------------------------|

e|------------------------------------------------------------------------| 
B|----------------7----7----7----7----------------------------------------|
G|-------9---9b--(11)-(11)-(11)-(11)r9------------------------------------|
D|-------9----------------------------------------------------------------|
A|-----9------------------------------------------------------------------|
E|-7-7--------------------------------------------------------------------|
(Play This Twice)

[Chorus]
"I wanna hold her..."
e|------------------------------------------------------------------------| 
B|------------------------------------------------------------------------|
G|------------------------------------------------------------------------|
D|-5--555--555--555--6--7--777--777--7777---------------------------------|
A|-5--555--555--555--6--7--777--777--7777---------------------------------|
E|-3--333--333--333--4--5--555--555--5555---------------------------------|

[Outro]
e|------------------------------------------------------------------------| 
B|------------------------------------------------------------------------|
G|----------------------11------------------------------------------------|
D|-12-12-xx-5-5-xx-7-7--12------------------------------------------------|
A|-12-12-xx-5-5-xx-7-7--12------------------------------------------------|
E|-10-10-xx-3-3-xx-5-5--10------------------------------------------------|


************************************

| x    Dead note
| (n)  Ghost note
| b    Bend    
| r    Relase

************************************

That's it! Great Song! 
Please Rate This Tab!
If you have any comments email me.

            
            
Suggest correction
Creating personal tab
Creating personal tab
You can edit any tab online and save it as your Personal.

You can edit, replace or remove any tab part or add personal notes – all changes will be seen only by you.

Personal tabs can be accessed anytime from any device, even offline.
Learn more »
comments
print report bad tab
3 comments total.
0 reply
TREX92 10 Feb 23, 2007 04:22 AM

Great tab man! well done! 5 stars

0 reply
right 26 May 01, 2007 08:58 AM

Looks good!

0 reply
Kooldood 155 Apr 08, 2008 06:37 AM

on the solo you put

e|--------------------------------------------|
B|----------------7----7----7----7------------|
G|-------9---9b--(11)-(11)-(11)-(11)r9--------|
D|-------9------------------------------------|
A|-----9--------------------------------------|
E|-7-7----------------------------------------|

its actually

e|--------------------------------------------|
B|----------------7----7----7----7------------|
G|-------7---9b--(11)-(11)-(11)-(11)r9--------|
D|-------9------------------------------------|
A|-----9--------------------------------------|
E|-7-7----------------------------------------|

not much difference but it sounds better

guest
You may want to rate the tab now too:
select rating
Wanna post a correction for this tab? Suggest correction