Oops, an error
Loading. Please wait.

Return Of Django bass

220 views 1 this week
2 commentsread comments
1 2 3 4 5
2 more votes to show rating
add to favorites
×
Save as Personal and add changes to this tab that will be seen only by you. Learn more ›
×
You can save this tab as Personal to edit and correct it or add notes. All changes will be seen only by you. Learn more »
launch autoscroll
font size
0
reset
guitar tuner
edit
Autoscroll
slow
fast
+/-
esc
set tempo
stop
Author
Difficulty
Return Of Django
1969 single released by Caribbean One-Hit-Wonders The Upsetters reached 
number 5 UK. Bass performance Aston Barrett. Tab by bass50611. Easy
And straight forward. Good reggae sound. 
Comments at bass254@btinternet.com 

Intro:
G|--------|------------------------------------------------------------|
D|-CYMBEL-|------------------------------------------------------------|
A|-START--|-----3--4------3--4------3--4------3--4------3--4------3--4-|
E|--------|-4-4-------4-4-------4-4-------4-4-------4-4-------4-4------|

               (Break)
G|---------------|
D|-6--6--6--6--6-|
A|---------------|
E|---------------|

Verse 1:
G|-----------------------------------------------------------------------|
D|----------------------------------------------3--4------3--4-----------|
A|-----3--4------3--4------3--4------3--4---4-4-------4-4-----------3--4-|
E|-4-4-------4-4-------4-4-------4-4----------------------------4-4------|

G|-------------------------------------------------------|
D|----------------5--6------5--6-------------------------|
A|-----3--4---6-6-------6-6------------3--4------3--4----|
E|-4-4-----------------------------4-4-------4-4---------|

Verse 2:
G|-----------------------------------------------------------------------|
D|----------------------------------------------3--4------3--4-----------|
A|-----3--4------3--4------3--4------3--4---4-4-------4-4-----------3--4-|
E|-4-4-------4-4-------4-4-------4-4----------------------------4-4------|

G|----------------------------------------------------|
D|----------------5--6------5--6----------------------|
A|-----3--4---6-6-------6-6------------3--4------3--4-|
E|-4-4-----------------------------4-4-------4-4------|

Bridge:                                                        (Drum Break)
G|-----------------------------------------------------------------|
D|------------------------------------5--6-------------------------|
A|-----3--4------3--4------3--4---6-6-----------3--4------3--4---4-|
E|-4-4-------4-4-------4-4------------------4-4-------4-4----------|

G|------------------------------------------------------------|
D|-----3--4------3--4--------------------------5--6------5--6-|
A|-4-4-------4-4----------3--4------3--4---6-6-------6-6------|
E|--------------------4-4-------4-4---------------------------|

G|--------------------|
D|--------------------|
A|-----3--4------3--4-|
E|-4-4-------4-4------|

Sax Solo 1:
G|-----------------------------------------------------------------------|
D|----------------------------------------------3--4------3--4-----------|
A|-----3--4------3--4------3--4------3--4---4-4-------4-4-----------3--4-|
E|-4-4-------4-4-------4-4-------4-4----------------------------4-4------|

G|-------------------------------------------------------|
D|----------------5--6------5--6-------------------------|
A|-----3--4---6-6-------6-6------------3--4------3--4----|
E|-4-4-----------------------------4-4-------4-4---------|

G|-----------------------------------------------------------------------|
D|----------------------------------------------3--4------3--4-----------|
A|-----3--4------3--4------3--4------3--4---4-4-------4-4-----------3--4-|
E|-4-4-------4-4-------4-4-------4-4----------------------------4-4------|

                                             (Break)
G|----------------------------------------------|
D|----------------5--6------5--6----------------|
A|-----3--4---6-6-------6-6------------3--4---4-|
E|-4-4-----------------------------4-4----------|

Sax Solo 2:
G|-----------------------------------------------------------------------|
D|----------------------------------------------3--4------3--4-----------|
A|-----3--4------3--4------3--4------3--4---4-4-------4-4-----------3--4-|
E|-4-4-------4-4-------4-4-------4-4----------------------------4-4------|

G|-------------------------------------------------------|
D|----------------5--6------5--6-------------------------|
A|-----3--4---6-6-------6-6------------3--4------3--4----|
E|-4-4-----------------------------4-4-------4-4---------|

G|-----------------------------------------------------------------------|
D|----------------------------------------------3--4------3--4-----------|
A|-----3--4------3--4------3--4------3--4---4-4-------4-4-----------3--4-|
E|-4-4-------4-4-------4-4-------4-4----------------------------4-4------|

                                              (Song Fades Out)
G|----------------------------------------------------|
D|----------------5--6------5--6----------------------|
A|-----3--4---6-6-------6-6------------3--4------3--4-|
E|-4-4-----------------------------4-4-------4-4------|


            
            
Suggest correction
Creating personal tab
Creating personal tab
You can edit any tab online and save it as your Personal.

You can edit, replace or remove any tab part or add personal notes – all changes will be seen only by you.

Personal tabs can be accessed anytime from any device, even offline.
Learn more »
Give kudos to tab author, rate the tab!
1 2 3 4 5
comments
print report bad tab
2 comments total.
0 reply
Cherokee00 327 Jun 13, 2017 11:54 AM

"One hit wonders" how dare you

0 reply
bass50611 13,467 Jun 13, 2017 01:32 PM

According to The Guinness Book of British Hit Singles The Upsetters had only One Hit.....this one!!! What else can you call them??

guest
You may want to rate the tab now too:
select rating
Wanna post a correction for this tab? Suggest correction