Oops, an error
Loading. Please wait.

Born To Quit tab

version 2
version 2

Whole song

Interactive

2,725 views 1 this week
5 commentsread comments
1 2 3 4 5
x 5
add to favorites
×
Save as Personal and add changes to this tab that will be seen only by you. Learn more ›
×
You can save this tab as Personal to edit and correct it or add notes. All changes will be seen only by you. Learn more »
launch autoscroll
font size
0
reset
how to read this tab
guitar tuner
edit
Autoscroll
slow
fast
+/-
esc
set tempo
stop
Born To Quit (Lead & Rythm)


Lead:
Intro
------------------------------------------------|
------------------------------------------------|
---------------------14-------------------------|
-0-0-2-3-2-0-7-8-7-5-X---0-0-2-3-2-0-7-8-7-11~--|
-0-0-2-3-2-0-7-8-7-5-12--0-0-2-3-2-0-7-8-7-11~--|
-0-0-2-3-2-0-7-8-7-5-----0-0-2-3-2-0-7-8-7-11~--|

verse
-----------------------------------------|
-----------------------------------------|
--10(x16)--9(x16)--12(x16)--10(x16)------|
-----------------------------------------|
-----------------------------------------|
-----------------------------------------|
PM......................................

Chorus
------------------------------------------------------------------------|
------------------------------------------------------------------------|
--10--------14---------19---------15--------14-------12-----------------|
--X--(x16)---X--(x16)---X--(x16)---X--(x4)--X--(x4)--X--(x4)-8-10---8~--|
--8---------12---------17---------13--------12-------10------8-10---8~--|
-------------------------------------------------------------8-10---8~--|

verse 2
-------------------------------|
-------------------------------|
--10~--12-10~--12-14~--12-10~--|
-------------------------------| 2x
-------------------------------|
-------------------------------|

Rpt. Intro - add a slide before this

-----------|
-----------|
-----------|
--8--10----|
--8--10----|
--8--10----|
at the end of verse

Rpt. Chorus

Bridge
----------------------------|
----------------------------|
----------------------------|
--0--8-10--------8----------|  x2
--0--8-10--(x3)--8--(x8)----|
--0--8-10--------8----------|

Rpt. Verse (no palm mute)

-----------|
-----------|
-----------|
--8--10----|  before chorus
--8--10----|
--8--10----|

Rpt. Chorus
Rpt. Intro x2

----------------------------------------------------------------------------

Rythm

Intro
Verse

Chorus
--------------------------------------|
--------------------------------------|
--------------------------------------|
--3-------5--------0--------8-(x16)---|
--3-(x16)-5-(x16)--0-(x16)--8-(x16)---|
--3-------5--------0--------8-(x16)---|

Rpt.Verse - add intro at some point (listen to track)

-----------|
-----------|
-----------|
--8--10----|
--8--10----|
--8--10----|
at the end of verse

Rpt. Chorus
Bridge
Rpt.Verse (no palm mute)

-----------|
-----------|
-----------|
--8-10-----|  before chorus
--8-10-----|
--8-10-----|

Rpt. Chorus
Rpt. Intro x2


            
            
Suggest correction
Creating personal tab
Creating personal tab
You can edit any tab online and save it as your Personal.

You can edit, replace or remove any tab part or add personal notes – all changes will be seen only by you.

Personal tabs can be accessed anytime from any device, even offline.
Learn more »
comments
print report bad tab
5 comments total. Showing first comments.
+1 reply
Rawrness 120 Apr 12, 2010 08:28 PM

nice tab :)
it would be cool if you could tab out the really high tremello bit in the very last chours too :). i can't figure it out myself :P

+1 reply
swart 392 Apr 25, 2010 01:13 PM

thanks Rawrness :D hmm i can't really notice the tremolo part at the end..sorry mate :( i only tabbed the song out for two guitars..maybe its for a third guitar?

0 reply
Music is Good(: 10 Apr 08, 2011 12:21 PM

Pretty good. I'm not sure if the 1st verse is correct.. It sounds a little weird. But the rest is right on! Thanks for the tab!!!

guest
You may want to rate the tab now too:
select rating
Wanna post a correction for this tab? Suggest correction