Oops, an error
Loading. Please wait.
We have an official Buried Myself Alive tab made by UG professional guitarists. Check out the tab »
×
10,939 views 36 this week
7 commentsread comments
1 2 3 4 5
x 5
add to favorites
×
Save as Personal and add changes to this tab that will be seen only by you. Learn more ›
×
You can save this tab as Personal to edit and correct it or add notes. All changes will be seen only by you. Learn more »
launch autoscroll
font size
0
reset
how to read this tab
guitar tuner
backing track
0:00
0:00
edit
Autoscroll
slow
fast
+/-
esc
set tempo
stop
[Intro]
E|----------------------------------------------------|
B|----------------------------------------------------|
G|---------11-11-11-11-11-11---------5-------7--------|
D|-5-------x--x--x--x--x--x--2-------5(15xs)-7(15xs)--|
A|-5(25xs)-9--9--9--9--9--9--2(25xs)-3-------5--------|
D|-3-------------------------2------------------------|
(Strumming)

[Verse]
You almost always pick the best times
to drop the worst lines
you almost made me cry again this time
another false alarm
red flashing lights
well this time I'm not going to watch myself die
I think I made it a game to play your game
and let myself cry
I buried myself alive on the inside
so I could shut you out
and let you go away for a long time
E|----------------------------------------|
B|----------------------------------------|
G|---------------5h7p5p0-5p0-5h7p5p0-5p0--|
D|-5-5h7-5p0-5p0--------------------------|(16x?)
A|----------------------------------------|
D|----------------------------------------|
(Softly use your index finger on the 12 fret and tap with your left/right hand)

[Chorus]
I guess it's ok I puked the day away
I guess it's better you trapped yourself in your own way
and if you want me back
you're gonna have to ask
E|----------------------------------------------------|
B|----------------------------------------------------|
G|---------11-11-11-11-11-11---------5-------7--------|
D|-5-------x--x--x--x--x--x--2-------5(15xs)-7(15xs)--|
A|-5(25xs)-9--9--9--9--9--9--2(25xs)-3-------5--------|
D|-3-------------------------2------------------------|
(Strumming)

[Verse II]
I think the chain broke away
and I felt it the day that I had my own time
I took advantage of myself and felt fine
but it was worth the night
I caught an early flight and I made it home
E|----------------------------------------|
B|----------------------------------------|
G|---------------5h7p5p0-5p0-5h7p5p0-5p0--|
D|-5-5h7-5p0-5p0--------------------------|(8x?)
A|----------------------------------------|
D|----------------------------------------|

[Chorus II]
I guess it's ok I puked the day away
I guess it's better you trapped yourself in your own way
and if you want me back
you're gonna have to ask
E|----------------------------------------------------|
B|----------------------------------------------------|
G|---------11-11-11-11-11-11---------5-------7--------|
D|-5-------x--x--x--x--x--x--2-------5(15xs)-7(15xs)--|
A|-5(25xs)-9--9--9--9--9--9--2(25xs)-3-------5--------|
D|-3-------------------------2------------------------|

[Bridge]
nicer than that
nicer than that
with my foot on your neck
I finally have you
right where I want you
right where I want you
right where I want you
right where I want you
E|-------------------------------|
B|-------------------------------|
G|-9--9-9-9--7--7-7-7--5--5-5-5--|
D|-x--x-x-x--x--x-x-x--x--x-x-x--|(2x)
A|-7--7-7-7--5--5-5-5--3--3-3-3--|
D|-------------------------------|

E|---------------|    |----------------------------------------------|
B|---------------|    |----------------------------------------------|
G|-12--12-12-12--|    |-12--12-12-12-----14--14-14-14--12--12-12-12--|
D|-x---x--x--x---|(4x)|-x---x--x--x-(3x)-x---x--x--x---x---x--x--x---|
A|-10--10-10-10--|    |-10--10-10-10-----12--12-12-12--10--10-10-10--|
D|---------------|    |----------------------------------------------|

e|--------------------------|
B|--------------------------|
G|-11--11-11-11---7--7-7-7--|
D|-x---x--x--x----x--x-x-x--|(2x)
A|-9---9--9--9----5--5-5-5--|
D|--------------------------|

E|---------------|    |----------------------------------|
B|---------------|    |----------------------------------|
G|-12--12-12-12--|    |-12---12-12-12-12-12-12-12-12-12--|
D|-x---x--x--x---|(5x)|-x----x--x--x--x--x--x--x--x--x---|
A|-10--10-10-10--|    |-10---10-10-10-10-10-10-10-10-10--|
D|---------------|    |----------------------------------|

[Chorus III]
I guess it's ok I puked the day away
I guess it's better you trapped yourself in your own way (your own way)
and if you want me back
you're gonna have to ask
nicer than that (I guess it's ok I puked the day away)
nicer than that (I guess it's better you trapped yourself in your own way)
and if you want me back
you're gonna have to ask
E|----------------------------------------------------|
B|----------------------------------------------------|
G|---------11-11-11-11-11-11---------5-------7--------|
D|-5-------x--x--x--x--x--x--2-------5(15xs)-7(15xs)--|(2x)
A|-5(25xs)-9--9--9--9--9--9--2(25xs)-3-------5--------|
D|-3-------------------------2------------------------|

[Outro]
nicer than that
nicer
nicer
E|----------------------------------------|
B|----------------------------------------|
G|---------------5h7p5p0-5p0-5h7p5p0-5p0--|
D|-5-5h7-5p0-5p0--------------------------|(4x?)
A|----------------------------------------|
D|----------------------------------------|

************************************

| x  Dead note
| h  Hammer-on
| p  Pull-off 

************************************

            
            
Suggest correction
Creating personal tab
Creating personal tab
You can edit any tab online and save it as your Personal.

You can edit, replace or remove any tab part or add personal notes – all changes will be seen only by you.

Personal tabs can be accessed anytime from any device, even offline.
Learn more »
comments
print report bad tab
7 comments total. Showing first comments.
+1 reply
Free2Live 115 Oct 20, 2007 06:52 PM

nice tab, not sure about the tapping though i do it slightly different but still good work:). and don't worry bout the repeats cause just say verse and people will get the jist of it, don't bother going into too much detail with stuff for verses i think. but good job, though, peace.

-1 reply
Free2Live 115 Oct 20, 2007 06:56 PM

oh only just saw you want the mistakes lol, well try this way for the tapping, this is how i do it
e|----------------------------------------------|
B|---7------------------------------------------|
G|-5---5h7p5p0-5p0-5h7p5p0-5p0------------------|
D|----------------------------------------------|
A|----------------------------------------------|
E|----------------------------------------------|

dunno if its on UG already but thats just how i do it, lemme know if you see where i'm going with it. peace

0 reply
FranKLynn 20 Jan 26, 2008 02:42 PM

Finally, a good tab for this song.
Much appreciation to you.

guest
You may want to rate the tab now too:
select rating
Wanna post a correction for this tab? Suggest correction