Oops, an error
Loading. Please wait.

Cut Up Angels bass

version 4
version 4

Whole song

Interactive

722 views 1 this week
1 commentread comment
1 2 3 4 5
2 more votes to show rating
add to favorites
×
Save as Personal and add changes to this tab that will be seen only by you. Learn more ›
×
You can save this tab as Personal to edit and correct it or add notes. All changes will be seen only by you. Learn more »
launch autoscroll
font size
0
reset
guitar tuner
edit
Autoscroll
slow
fast
+/-
esc
set tempo
stop
Cut Up Angels
The Used
Hellbassist1 (Stufin135)


Intro
G|----------------|----------------|----------------|----------------||
D|----------------|----------------|----------------|--------00------||
A|----------------|----------------|----------------|----------17\---||
E|----------------|----------------|----------------|----------------||
B|----------------|----------------|----------------|----------------||


Verse 1
G|----------------|----------------|----------------|--------2-2-----||
D|0---0-----------|--------57--77\-|0---0-----------|------------4-2-||
A|------4-2---2---|-----------0----|------4-2---2---|----------------||
E|--------------0-|2---2-2---------|--------------0-|2---2-2---------||
B|----------------|----------------|----------------|----------------||

G|----------------|----------02----|----------------|----------------||
D|0---0-----------|-------------20-|0---0-----------|------------67--||
A|------4-2---2---|--------0-------|------4-2---2---|--------0-0---0-||
E|--------------0-|2---2-2---------|--------------0-|2---2-2---------||
B|----------------|----------------|----------------|----------------||

G|----------------||
D|----21--7888888-||
A|1-11--1---------||
E|----------------||
B|----------------||


Chorus
G|----------------|----------------|----------------|----------------||
D|--------2---2-4-|--------4---4-2-|--------2---2-4-|------------2---||
A|----------------|2-2-2-2---2-----|4-4-4-4---4-----|0-0-0-0-2-2---4-||
E|0-0-0-0---0-----|----------------|----------------|----------------||
B|----------------|----------------|----------------|----------------||


Verse 2
G|----------------|------------0---|----------------|--------67x76-0-||
D|0---0-----------|--------577---2-|0---0-----------|----------------||
A|------4-2---2---|----------------|------4-2---2---|----------------||
E|--------------0-|2---2-2---------|--------------0-|2---2-2---------||
B|----------------|----------------|----------------|----------------||

G|----------------|---------2-2\---|----------------|------------2---||
D|0---0-----------|----------------|0---0-----------|--------------4-||
A|------4-2---2---|--------------0-|------4-2---2---|--------0-0-----||
E|--------------0-|2---2-2---------|--------------0-|2---2-2---------||
B|----------------|----------------|----------------|----------------||

G|----------------||
D|----21------21--||
A|1-11--1-1-11--1-||
E|----------------||
B|----------------||


Chorus
G|----------------|----------------|----------------|----------------||
D|--------2---2-4-|--------4---4-2-|--------2---2-4-|------------2---||
A|----------------|2-2-2-2---2-----|4-4-4-4---4-----|0-0-0-0-2-2---2-||
E|0-0-0-0---0-----|----------------|----------------|----------------||
B|----------------|----------------|----------------|----------------||

G|----------------|----------------|----------------||
D|--------2---2-4-|--------4---4-2-|--------2---2-4-||
A|----------------|2-2-2-2---2-----|3-3-3-3---3-----||
E|0-0-0-0---0-----|----------------|----------------||
B|----------------|----------------|----------------||


Post Chorus
G|----------------|----------------|----------------||
D|------------7---|------------7---|--------2---2-4-||
A|0-0-0-0-0-0-----|0-0-0-0-0-0-----|0-0-0-0---0-----||
E|----------------|----------------|----------------||
B|----------------|----------------|----------------||


Bridge
G|----------------|----------------|----------------|----------------||
D|0-0-0-0-0-0-0-0-|----------------|----------------|5-555---5-555---||
A|----------------|----------------|2-2-2-2-2-2-2-2-|------4-------4-||
E|----------------|2-2-2-2-2-2-2-2-|----------------|----------------||
B|----------------|----------------|----------------|----------------||

G|----------------|----------------|----------------|----------------||
D|0-0-0-0-0-0-0-0-|----------------|----------------|5-5-5-5-5-5-5-5-||
A|----------------|----------------|2-2-2-2-2-2-2-2-|----------------||
E|----------------|2-2-2-2-2-2-2-2-|----------------|----------------||
B|----------------|----------------|----------------|----------------||

G|----------------|----------------||
D|5-5-5-5-5-5-5-5-|5-5-5-5-5-5-5-5-||
A|----------------|----------------||
E|----------------|----------------||
B|----------------|----------------||


Verse 3
G|----------------|----------------|----------------|----------------||
D|----------------|----------------|----------------|----------------||
A|----------------|----------------|----------0/12\0|----------------||
E|----------------|----------------|----------------|----------------||
B|----------------|----------------|----------------|----------------||


Chorus
G|----------------|----------------|----------------|----------------||
D|--------2---2-4-|--------4---4-2-|--------2---2-4-|------------2---||
A|----------------|2-2-2-2---2-----|4-4-4-4---4-----|0-0-0-0-2-2---2-||
E|0-0-0-0---0-----|----------------|----------------|----------------||
B|----------------|----------------|----------------|----------------||

G|----------------|----------------|----------------|----------------||
D|--------2---2-4-|--------4---4-2-|--------2---2-4-|----------------||
A|----------------|2-2-2-2---2-----|3-3-3-3---3-----|----------------||
E|0-0-0-0---0-----|----------------|----------------|0-0-0-0---------||
B|----------------|----------------|----------------|----------------||

                                    (4th on A String)
G|----------------|----------------|----------------|----------------||
D|----------------|----------------|----------------|----------------||
A|----------------|2-2-2-2-2-2-2-2-|----------------|0-0-0-0-2-2-2-2-||
E|0-0-0-0-0-0-0-0-|----------------|----------------|----------------||
B|----------------|----------------|2-2-2-2-2-2-2-2-|----------------||

                                    (3rd on A String)
G|----------------|----------------|----------------||
D|2-2-2-2-2-2-2-2-|----------------|----------------||
A|----------------|2-2-2-2-2-2-2-2-|----------------||
E|----------------|----------------|----------------||
B|----------------|----------------|1-1-1-1-1-1-1-1-||



Post Chorus
G|----------------|----------------|----------------||
D|----------------|----------------|--------2---2-4-||
A|0-0-0-0-0-0-0---|0-0-0-0-0-0-0---|0-0-0-0---0-----||
E|----------------|----------------|----------------||
B|----------------|----------------|----------------||


Outro
G|----------------|----------------|----------------|----------------||
D|----------------|----------------|----------------|----------------||
A|4-4-4-4-4-4-4-4-|3-3-3-3-3-3-3-3-|4-4-4-4-4-4-4-4-|3-3-3-3-3-3-3-3-||
E|----------------|----------------|----------------|----------------||
B|----------------|----------------|----------------|----------------||

G|----------------|----------------|----------------|----------------||
D|----------------|----------------|----------------|----------------||
A|4-4-4-4-4-4-4-4-|3-3-3-3-3-3-3-3-|4-4-4-4-4-4-4-4-|0-0-0-0-0-0-0-0-||
E|----------------|----------------|----------------|----------------||
B|----------------|----------------|----------------|----------------||

G|----------------|----------------|----------------|----------------||
D|----------------|----------------|----------------|----------------||
A|----------------|----------------|----------------|----------------||
E|0~~~~~~~~~~~~~~~|~~~~~~~~~~~~~~~~|----------------|----------------||
B|----------------|----------------|----------------|----------------||

            
            
Suggest correction
Creating personal tab
Creating personal tab
You can edit any tab online and save it as your Personal.

You can edit, replace or remove any tab part or add personal notes – all changes will be seen only by you.

Personal tabs can be accessed anytime from any device, even offline.
Learn more »
Give kudos to tab author, rate the tab!
1 2 3 4 5
comments
print report bad tab
1 comment total.
0 reply
kodakilljoy 51 Apr 10, 2015 12:35 PM

much better than the crap tabs the other versions are

guest
You may want to rate the tab now too:
select rating
Wanna post a correction for this tab? Suggest correction