Oops, an error
Loading. Please wait.

I Caught Fire In Your Eyes tab

version 2
version 2

Whole song

13,508 views 12 this week
9 commentsread comments
1 2 3 4 5
x 6
add to favorites
×
Save as Personal and add changes to this tab that will be seen only by you. Learn more ›
×
You can save this tab as Personal to edit and correct it or add notes. All changes will be seen only by you. Learn more »
launch autoscroll
font size
0
reset
how to read this tab
guitar tuner
edit
Autoscroll
slow
fast
+/-
esc
set tempo
stop
Title: I caught fire (in your eyes)
Artist: The Used
Album: In love and death
Tuning: Drop D (BOTH GUITARS)

INTRO:

GUITAR I: Play this seven times
|9p0----------7-------------------------------|
|---9p0-7h9p0---0-9p0-7h9p0h7p0---------------|
|---------------------------------------------|           
|---------------------------------------------|
|---------------------------------------------| 
|---------------------------------------------|

GUITAR II: Enters the third time

|---------------------------------------------|
|---------------------------------------------|
|-6-6--x--6--x--4-4--x--4--x--4444444444444444|           
|-6-6--x--6--x--4-4--x--4--x--2222222244444444|
|-4-4--x--4--x--2-2--x--2--x--2222222222222222| 
|-----------------------------22222222--------|
(CONTINUED)
|---------------------------------------------|
|---------------------------------------------|
|22222222-6-6--x--6--x--4-4--x--4--x----------|           
|22222222-6-6--x--6--x--4-4--x--4--x----------|
|00000000-4-4--x--4--x--2-2--x--2--x----------| 
|---------------------------------------------|

VERSE I:(BOTH GUITARS)

PLAY THIS TWICE
|-9~--------9--------7------------------------|
|-9~----------9~--------9-9h10-9~-------------|
|-9~------------------------------------------|           
|---------------------------------------------|
|---------------------------------------------| 
|---------------------------------------------|

THEN,

|------------------------------------------------|
|------------------------------------------------|
|-66666666666666669999999999999999---------------|           
|----------------------------------77--77-7--12\-|
|----------------------------------77--77-7--12\-| 
|----------------------------------77--77-7--12\-|

CHORUS: PLAY THE CHORUS TWICE

(BOTH GUITARS)
|---------------------------------------------|
|---------------------------------------------|
|444444444444444422222222-6-6-x-6-x-4-4-x-4--x|           
|222222224444444422222222-6-6-x-6-x-4-4-x-4--x|
|222222222222222200000000-4-4-x-4-x-2-2-x-2--x| 
|22222222-------------------------------------|

AFTER-CHORUS: PLAY THIS TWICE

GUITAR I:
|9p0----------7-------------------------------|
|---9p0-7h9p0---0-9p0-7h9p0h7p0---------------|
|---------------------------------------------|           
|---------------------------------------------|
|---------------------------------------------| 
|---------------------------------------------|

VERSE II:

|9~--10~--12~-------------------------------------|
|9~--10~--12~-------------------------------------|
|9~--10~--12~-6666666699999999--------------------|           
|-------------6666666699999999-77-77--77-77-7~-12\|
|-------------4444444477777777-77-77--77-77-7~-12\| 
|------------------------------77-77--77-77-7~-12\|

CHORUS: (BOTH GUITARS)

|---------------------------------------------|
|---------------------------------------------|
|444444444444444422222222-6-6-x-6-x-4-4-x-4--x|
|222222224444444422222222-6-6-x-6-x-4-4-x-4--x|
|222222222222222200000000-4-4-x-4-x-2-2-x-2--x|           
|22222222-------------------------------------|

(BOTH GUITARS PLAYING AT THE SAME TIME)
GUITAR II:
|---------------------------------------------|
|---------------------------------------------|
|-6-6-x-6-x-4-4-x-4--x--6-6-x-6-x-4-4-x-4--x--|
|-6-6-x-6-x-4-4-x-4--x--6-6-x-6-x-4-4-x-4--x--|
|-4-4-x-4-x-2-2-x-2--x--4-4-x-4-x-2-2-x-2--x--|
|---------------------------------------------|

GUITAR I:

|12p09p0---------------------------------------|
|-------10h12p0-9p0-10p0-7h9-7p0---------------|
|----------------------------------------------|           
|----------------------------------------------|
|----------------------------------------------| 
|----------------------------------------------|

BRIDGE: PLAY THIS TWICE

(BOTH GUITARS)
|---------------------------------------------|
|---------------------------------------------|
|-6-6-6-6-x-6-4-2-2-2-2-x--4444444444444444---|           
|-6-6-6-6-x-6-4-2-2-2-2-x--2222222244444444---|
|-4-4-4-4-x-4-2-0-0-0-0-x--2222222222222222---| 
|--------------------------22222222-----------|

THEN,

BOTH GUITARS PLAYING AT THE SAME TIME
GUITAR II:
|---------------------------------------------|
|---------------------------------------------|
|44444444444----------------------------------|
|11111111111----------------------------------|
|22222222222----------------------------------|           
|11111111111----------------------------------|

GUITAR I:
|12p0-9p0-------------------------------------|
|---------10h12p0-9-0-10p0-7h9p0-7p0----------|
|---------------------------------------------|           
|---------------------------------------------|
|---------------------------------------------| 
|---------------------------------------------|

CHORUS:

BOTH GUITARS: PLAY THIS TWICE
|---------------------------------------------|
|---------------------------------------------|
|444444444444444422222222-6-6-x-6-x-4-4-x-4--x|
|222222224444444422222222-6-6-x-6-x-4-4-x-4--x|
|222222222222222200000000-4-4-x-4-x-2-2-x-2--x|           
|22222222-------------------------------------|

FINAL CHORUS: PLAY THIS TWICE

GUITAR II:
|---------------------------------------------------------------|
|---------------------------------------------------------------|
|4444444444444444444444444444442222222222222222-66-x6-x4-4-x-4-x|
|2222222222222222444444444444442222222222222222-66-x6-x4-4-x-4-x|
|2222222222222222222222222222220000000000000000-44-x4-x2-2-x-2-x|           
|2222222222222222-----------------------------------------------|

GUITAR I:(111111111111111 ARE ELEVENS)
|------------------------------------------------|
|------------------------------------------------|
|999999999999999911111111111111111313131313131313|           
|------------------------------------------------|
|777777777777777799999999999999991111111111111111| 
|------------------------------------------------|
(CONTINUED)
|12p0-9p0-------------------------------------|
|---------10h12p0-9-0-10p0-7h9p0-7p0----------|
|---------------------------------------------|           
|---------------------------------------------|
|---------------------------------------------| 
|---------------------------------------------|

THEN, (BOTH GUITARS PLAYING AT THE SAME TIME)

GUITAR II:
|---------------------------------------------|
|----------------------------------------5~~~~|
|-6-6-x-6-x-4-4-x-4-x-6-6-x-6-x-4-4-x-4-x-----|
|-6-6-x-6-x-4-4-x-4-x-6-6-x-6-x-4-4-x-4-x-----|
|-4-4-x-4-x-2-2-x-2-x-4-4-x-4-x-2-2-x-2-x-----|
|---------------------------------------------|

GUITAR I:

|12p0-9p0-------------------------------------|
|---------10h12p0-9-0-10p0-7h9p0-7p0-----5~~~~|
|---------------------------------------------|           
|---------------------------------------------|
|---------------------------------------------| 
|---------------------------------------------|




            
            
Suggest correction
Creating personal tab
Creating personal tab
You can edit any tab online and save it as your Personal.

You can edit, replace or remove any tab part or add personal notes – all changes will be seen only by you.

Personal tabs can be accessed anytime from any device, even offline.
Learn more »
comments
print report bad tab
9 comments total. Showing first comments.
+2 reply
Free2Live 115 Jun 08, 2007 04:57 PM

really good tab, heaps easy to read and play to. good work

0 reply
jec013 302 Jun 13, 2007 03:33 AM

thx!

+2 reply
CherrySG33 72 Jun 25, 2007 04:50 AM

yeah, i agree, there's another one on here that is way to confusing, this one is so much more simplified, and its just as accurate. Good job.

guest
You may want to rate the tab now too:
select rating
Wanna post a correction for this tab? Suggest correction